Guitaretab - guitar tabs
Song name
# A B C D E F G H I J K L M N O P Q R S T U V W X Y Z

Grinspoon - Hard Act To Follow tab

By Grinspoon - Hard Act to Follow
Tabbed by The Milkmen


|--------------------------------------------------------------------|
|-------------------------------------------------------- 9---7------|
|---------------------------------------------7----------9---7-------|
|--------4---5---7---4---5-----9-----9----------9--------------------|
|--------------------------------------------------------------------|
|--------------------------------------------------------------------|
[ Tab from: http://www.guitaretab.com/g/grinspoon/132581.html ]
|------------------------------------------------------|
|---------12-----------------14v-----------------------|
|----11b----1111v---------------------7---9-----------|
|------------------------------------------------------|
|------------------------------------------------------|
|------------------------------------------------------|


Play this 5 times
|------------7-------|
|---7--------7-------|
|-------9b-----------|
|--------------------|
|--------------------|
|--------------------|

|-9b----12b----10-----------|
|-------------------10--10--|
|---------------------------|
|---------------------------|
|---------------------------|
|---------------------------|
Related for Hard Act To Follow tab