Song name
# A B C D E F G H I J K L M N O P Q R S T U V W X Y Z

Grinspoon - Hideaway tab

Artist: Grinspoon
Song: Hideaway
Drop D

Intro/verse riff
E----------------------------------------------------------------------|
b----------------------------------------------------------------------|
g----------------------------------------------------------------------|
d----------------------------------------------------------------------|
a------10------9h10-9------7------9------10------9h10-9------7------5--|
d-0000----0000--------0000---0000---0000----0000--------0000---0000----|

Chord in verse
E-----------|
b-----------|
g----5--7---|
d----5--7---|
a----5or5---|
d----5--5---|

Chorus
E----------------------------------------------|
b----------------------------------------------|
g-----------5-5-5-5----------3-3-3-3---5-5-5-5-|
d--0-0-0-0--5-5-5-5-5-5-5-5--3-3-3-3---5-5-5-5-|
a--0-0-0-0--3-3-3-3-5-5-5-5--1-1-1-1---3-3-3-3-|
d--0-0-0-0----------5-5-5-5--------------------|

Bridge
E-----------------------------------------------|
b-----------------------------------------------|
g----7--9--10--14-------------------------------|
d------------------8--x2--5-5-7--8-8--3---0~----|
a----5--7--8---12--8------5-5-7--8-8--3---0~----|
d------------------8------5-5-7--8-8--3---0~----|


Tap to rate this tab
# A B C D E F G H I J K L M N O P Q R S T U V W X Y Z