Guitaretab - guitar tabs
Song name
# A B C D E F G H I J K L M N O P Q R S T U V W X Y Z

Grinspoon - Outside Looking In tab

Title: Outside Looking In
Artist: Grinspoon
Album: Alibis and Other Lies

Pt 1

E|-------------------------------------|
B|-------------------------------------|
G|--7777--------10101010---------------|
D|--7777-888888-10101010-101010101010--|
A|--5555-888888-8-8-8-8--101010101010--|
E|-------666666----------8-8-8-8-8-8---|


Pt 2

E|-------------------------------------|
B|-------------------------------------|
G|-------------------------------------|
D|--5-5555555555-/-8-8888888888--------|
A|--5-5555555555-/-8-8888888888--------|
E|--3-3333333333-/-6-6666666666--------|
 pm.............   ............

Pt 3

E|-------------------------------------|
B|-------------------------------------|
G|--10-1010--10-1010--10-1010--10-1010-|
D|--10-1010--10-1010--10-1010--10-1010-|
A|--8--8-8---8--8-8---8--8-8---8--8-8--|
E|-------------------------------------|


Pt 4
[ Tab from: http://www.guitaretab.com/g/grinspoon/158594.html ]
E|-------------------------------------------|
B|-------------------------------------------|
G|--555-333-555-333-555-***-555-333-555-333--|
D|--555-333-555-333-555-***-555-333-555-333--|
A|--333-111-333-111-333-***-333-111-333-111--|
E|-------------------------------------------|

solo.

e|---------------------------------------------------------------------------|
B|---------------------------------------------------------------------------|
G|-----7---7-9-9-7-------7//-----7---7-9-9-7-------7-9-7-11-9-7-----------7--|
D|-7-9---9---------9-7-9-----7-9---9---------9-7-9--------------9-7-9-7-9----|
A|---------------------------------------------------------------------------|
E|---------------------------------------------------------------------------|

e|---------------------------------------------------------------------------|
B|---------------------------------------------------------------------------|
G|-9//--------------------------------------------------------------------------|
D|---------------------------------------------------------------------------|
A|---------------------------------------------------------------------------|
E|---------------------------------------------------------------------------|
Related for Outside Looking In tab