Song name
# A B C D E F G H I J K L M N O P Q R S T U V W X Y Z

Grinspoon - Butcher tab

Artist: Grinspoon
Song: Butcher
Album: Licker bottle cozy

Standard Tuning (low to high: E A D G B E)

Intro

|---------------------------------------|
|---------------------------------------|
|---------------------------------------|
|---------------------------------------|
|--2----6(5)----5(4)----4(3)-33---------|
|--0--x-4(3)--x-3(2)--x-2(1)-11-3b------|


Chorus

|-----------------------------|
|-----------------------------|
|-----------------------------|
|--2-2-2-2-6-6-6-6-5-5-5-5-4--|
|--2-2-2-2-6-6-6-6-5-5-5-5-4--|
|--0-0-0-0-4-4-4-4-3-3-3-3-2--|
Tap to rate this tab
# A B C D E F G H I J K L M N O P Q R S T U V W X Y Z