Guitaretab - guitar tabs
Song name
# A B C D E F G H I J K L M N O P Q R S T U V W X Y Z

Grinspoon - Let It Go tab

GRINSPOON  :   LET IT GO 
 
DROP D: 
 
INTRO/BASS 
G|---------------------------------------------------| 
D|---------------------------------------------------| 
A|--8\5--5\3-----------------8\5--5\3----------------| 
D|--------------0-3-5-3-0-----------------0-3-5-3-0--| 
 
riff 1 
E|-------------------------------------------------------| 
B|-------------------------------------------------------| 
G|--10\7--7\5----------------10\7--7\3-------------------| 
D|--------------0-3-5-3-0-----------------0-3-5-3-0------| 
A|---8\5--5\3---0-3-5-3-0-----8\5--5\3----0-3-5-3-0------| 
D|--------------0-3-5-3-0-----------------0-3-5-3-0------| 
 
riff 2/main riff 
E|--------------------------------------------------------| 
B|--------------------------------------------------------| 
G|--7--5/7--x-x-x-x--10-\7--------7--5/7--x-x-x-x--10-\7--| 
D|----------x-x-x-x----------0-0----------x-x-x-x---------| 
A|--5--3/5--x-x-x-x--8--\5---0-0--5--3/5--x-x-x-x--8--\5--| 
D|---------------------------0-0--------------------------| 
  |------------------------| 
    first time only. 
 
riff3 
E|----------------------------------------------------| 
B|----------------------------------------------------| 
G|--------5---4--4------------5---4--4----------------| 
D|--0--0--5---4--4--3---0--0--5---4--4--3-------------| 
A|--0--0--3---2--2--3---0--0--3---2--2--3-------------| 
D|--0--0------------3---0--0------------3-------------| 
 
RIFF 4/pre solo 
E|----------------------------------------------------| 
B|----------------------------------------------------| 
G|----------------------------------------------------| 
D|--0-2-3-2-3-2-0----0-2-3-2-3-2-0--------------------| 
A|--0-2-3-2-3-2-0----0-2-3-2-3-2-0--------------------| 
D|--0-2-3-2-3-2-0----0-2-3-2-3-2-0--------------------| 
   |-------------------------------| 
     play fast  
 
 


[ Tab from: http://www.guitaretab.com/g/grinspoon/163313.html ]
Related for Let It Go tab