Guitaretab - guitar tabs
Song name
# A B C D E F G H I J K L M N O P Q R S T U V W X Y Z

Grinspoon - Next Big Thing tab

Artist:Grinspoon
Album: Guide To Better Living
Song: Next Big Thing


Drop D Tuning (low to high: D A D G B E)

Intro

w/5c coin used as a pick

  (play 4 times)
|--------------------------------------|
|--------------------------------------|
|--------------------------------------|
|--4444-54--7777-87--4444-54--8888-75--|
|--4444-54--7777-87--4444-54--8888-75--|
|--4444-54--7777-87--4444-54--8888-75--|

  (play 2 times)
|--------------|
|--------------|
|--------------|
|--4444-54-77--|
|--4444-54-77--|
|--4444-54-77--|


Verses

  (play 2 times)
|-------------------------------------|
|-------------------------------------|
|-------------------------------------|
|--4444-54--7777-87-4444-54--8888-75--|
|--4444-54--7777-87-4444-54--8888-75--|
|--4444-54--7777-87-4444-54--8888-75--|
[ Tab from: http://www.guitaretab.com/g/grinspoon/163315.html ]
1.

2.

Chorus

  (play 4 times)
|--------------------------|
|--------------------------|
|--------------------------|
|--9--910/---77-7-77-7-----|
|--9--910/---77-7-77-7-----|
|--9--910/---77-7-77-7-----|

|-------------------------------------|
|-------------------------------------|
|-------------------------------------|
|-------------------------------------|
|-----3-------33-----3----------------|
|--44---44-44----4-4---4-4-4-4-6p500--|

Next Big Thing ....
If it ...
Next Big Thing ...
Next Big Thing


Interlude

|-------------------------------------------|
|-------------------------------------------|
|-------------------------------------------|
|--4444-4444-7777-7777-6666-6666-5555-5555--|
|--4444-4444-7777-7777-6666-6666-5555-5555--|
|--4444-4444-7777-7777-6666-6666-5555-5555--|
Related for Next Big Thing tab