Guitaretab - guitar tabs
Song name
# A B C D E F G H I J K L M N O P Q R S T U V W X Y Z

Grinspoon - Point Of View tab

Point of View by Grinspoon


Drop D Tuning (low to high: D A D G B E)

Intro

fdbk.
|------|
|------|
|------|
|--0~--|
|--0~--|
|--0~--|
fade in

|------------------|
|-------------12b--|
|--12-11-10~--12b--|
|------------------|
|------------------|
|------------------|


Verse

|----------------|
|----------------|
|----------------|
|--10-10--12-12--|
|--10-10--12-12--|
|--10-10--12-12--|
[ Tab from: http://www.guitaretab.com/g/grinspoon/163340.html ]
|----------------------|
|----------------------|
|----------------------|
|--0--0-3--0-0--0-3-5--|
|--0--0-3--0-0--0-3-5--|
|--0--0-3--0-0--0-3-5--|


Chorus

|---------------------------------------------|
|---------------------------------------------|
|--5--5--5-5----------------------------------|
|--5--5--5-5--5--5--5-5--0--0-3--0-0--0-33-5--|
|--3--3--3-3--5--5--5-5--0--0-3--0-0--0-33-5--|
|-------------5--5--5-5--0--0-3--0-0--0-33-5--|


Solo

(play four times)
|--------------------------------|
|----------------------13-12-10--|
|--12-11-10----------------------|
|------------12-11-10------------|
|--------------------------------|
|--------------------------------|
Related for Point Of View tab