Guitaretab - guitar tabs
Song name
# A B C D E F G H I J K L M N O P Q R S T U V W X Y Z

Grinspoon - Save Me tab

Artist: Grinspoon
Song: Save me
Album: Green Album (EP)

Drop D Tuning (low to high: D A D G B E)

Intro

|--------------|---------------------------------------------------|
|--------------|---------------------------------------------------|
|--------------|-107--75----------------107--73--------------------|
|--|==BASS==|--|-------------0-3-5-3-0-----------------0-3-5-3-0---|
|--------------|--85--53---0-3-5-3-0-----85--53----0-3-5-3-0-------|
|--------------|-------------0-3-5-3-0-----------------0-3-5-3-0---|

Pre-Chorus
[ Tab from: http://www.guitaretab.com/g/grinspoon/163341.html ]
|--------------------------------------------------|
|--------------------------------------------------|
|-7-xx-5/7-7-xxxx-107-7--7-xx-5/7-7-xxxx-107-7-----|
|---xx-------xxxx-----------xx-------xxxx----------|
|-5-xx-3/5-5-xxxx-8-5-5--5-xx-3/5-5-xxxx-8-5-5-----|
|-0----0------------------0----0-------------------|

Chorus

|---------------------------------------------------|
|---------------------------------------------------|
|-107--75----------------107--73--------------------|
|-------------0-3-5-3-0-----------------0-3-5-3-0---|
|--85--53---0-3-5-3-0-----85--53----0-3-5-3-0-------|
|-------------0-3-5-3-0-----------------0-3-5-3-0---|


Bridge

|--------------------------------|
|--------------------------------|
|--------------------------------|
|-0-2-3-2-3-2-0----0-2-3-2-3-2-0-|
|-0-2-3-2-3-2-0----0-2-3-2-3-2-0-|
|-0-2-3-2-3-2-0----0-2-3-2-3-2-0-|
Related for Save Me tab