Song name
# A B C D E F G H I J K L M N O P Q R S T U V W X Y Z

Grinspoon - Dogs tab

----------------------------------------------------------------------------
			     Dogs - Grinspoon
---------------------------------------------------------------------------

Tuning: Drop D (DADgbe)
Intro
e|-------------------------------------------------------------------------|
B|-2-2-2-2-2-2-2-2-3-3-3-3-3-3-3-3-5-5-5-5-5-5-5-7-7-7-7-7-7-7-7--scrape---|
G|-------------------------------------------------------------------------|
D|-------------------------------------------------------------------------|
A|-------------------------------------------------------------------------|
D|--------------------------------------------------------------//---------|

Chorus - Main Riff
e|-------------------------------------------------------------------------|
B|-------------------------------------------------------------------------|
G|-------------------------------------------------------------------------|
D|-0-3-5-3-0-5-0-3-5-------------------------------------------------------|
A|-0-3-5-3-0-5-0-3-5-------------------------------------------------------|
D|-0-3-5-3-0-5-0-3-5-------------------------------------------------------|

Verses
e|-------------------------------------------------------------------------|
B|-------------------------------------------------------------------------|
G|-------------------------------------------------------------------------|
D|-00-0-0-0-00-0-0-0-0-0---------------------------------------------------|
A|-00-0-0-0-00-0-0-0-0-0---------------------------------------------------|
D|-00-0-0-0-00-0-0-0-0-0-play many-times-----------------------------------|

e|-------------------------------------------------------------------------|
B|-2-2-2-2-2-2-2-2-3-3-3-3-3-3-3-5-5-5-5-5-5-7-7-7-7-7-7-7-7-7-7-----------|
G|-------------------------------------------------------------------------|
D|-------------------------------------------------------------------------|
A|-------------------------------------------------------------------------|
D|-------------------------------------------------------------------------|

"There is nothing left to say coz ur already dead!!!"
e|-------------------------------------------------------------------------|
B|-------------------------------------------------------------------------|
G|-------------------------------------------------------------------------|
D|-0-3-5-3-0-5-0-3-5-------------------------------------------------------|
A|-0-3-5-3-0-5-0-3-5-------------------------------------------------------|
D|-0-3-5-3-0-5-0-3-5-------------------------------------------------------|

your on your own for the solo

Tap to rate this tab
# A B C D E F G H I J K L M N O P Q R S T U V W X Y Z