Song name
# A B C D E F G H I J K L M N O P Q R S T U V W X Y Z

Grinspoon - More Than You Are tab

Artist: Grinspoon
Song: More Than You Are
Tuning: Drop-D
Tabbed By: Raeden


Key:
PM: Palm muting
\: Slide down
~: vibrato
b: bend

Introduction/Chorus
e |----------------------------------------------------------------------|
B |----------------------------------------------------------------------|
G |--------------------------------7-------------------------------------|
D |-4--4--4-4-4--2--2--2-2-2--0-0--7-------------------------------------|x3
A |-4--4--4-4-4--2--2--2-2-2--0-0--5-------------------------------------|
D |-4--4--4-4-4--2--2--2-2-2--0-0----------------------------------------|

                             [PM--------------------PM]
e |----------------------------------------------------------------------|
B |----------------------------------------------------------------------|
G |-------------------------------7-----7------7-----7-------------------|
D |-4--4--4-4-4--2--2--2-2-2------7-----7------7-----7-------------------|
A |-4--4--4-4-4--2--2--2-2-2------5-----5------5-----5-------------------|
D |-4--4--4-4-4--2--2--2-2-2--0-0---0-0----0-0---0-0---------------------|

Verse:
e |----------------------------------------------------------------------|
B |----------------------------------------------------------------------|
G |-9b11~\---------------------------------------------------------------|
D |----------------------------------------------------------------------|
A |----------------------------------------------------------------------|
D |----------------------------------------------------------------------|


After chorus:
e |----------------------------------------------------------------------|
B |----------------------------------------------------------------------|
G |-------------------------------------7--------------------------------|
D |-4--4--x-x-x--7--7--x-x-x--2--2--x---7--------------------------------|x2
A |-4--4--x-x-x--7--7--x-x-x--2--2--x---5--------------------------------|
D |-4--4--x-x-x--7--7--x-x-x--2--2--x------------------------------------|


Quiet bit:
   [PM-------------PM]
e |--------------------------------------|
B |--------------------------------------|
G |---------------7----------------------|
D |---4-----2----7-----------------------|x3
A |--4-4---2-2--5------------------------|
D |-4-----2------------------------------|

   [PM-------------PM]
e |-----------------------------------|
B |-----------------------------------|
G |-----------------------------------|
D |---4-----2-------------------------|x3
A |--4-4---2-2------------------------|
D |-4-----2----0----------------------|
Tap to rate this tab
 
# A B C D E F G H I J K L M N O P Q R S T U V W X Y Z