Guitaretab - guitar tabs
Song name
# A B C D E F G H I J K L M N O P Q R S T U V W X Y Z

Grinspoon - Ready 1 tab

this tab is 100% correct... although this is my first submitted tab... i have done many tabs before

Steven C

Artist: Grinspoon
Song: Ready 1
Album: Easy

Drop D Tuning (low to high: D A D G B E)


Intro X 4

Guitar One (Dist.)
e|--------------------------|
B|--------------------------|
G|--------------------------|
D|-9-9-9---5-7---5-55-77-88-|
A|-9-9-9\--5-5-0-5-55-77-88-|
D|-9-9-9\--5---0-5-55-77-88-|

Guitar Two (Dist.)
e|--------------------------|
B|--------------------------|
G|-11-11-11\----------------|
D|-9--9--9-\----------------|
A|--------------------------|
D|--------------------------|

Verse X 4

e|------------------------------------------------|
B|------------------------------------------------|
G|------------------------------------------------|
D|-------------5-55-7-777--------------9-99-7-777-|
A|-9-9-9-9-9-9-5-55-7-777--9-9-9-9-9-9-9-99-7-777-|
D|-9-9-9-9-9-9-5-55-7-777--9-9-9-9-9-9-9-99-7-777-|
  p.m........             p.m........

Guitar Two Fills:
e|----------------------|
B|----------------------|
G|-/11-11-11-11-11-11-9-|
D|----------------------|
A|----------------------|
D|----------------------|
 
e|---------|
B|---------|
G|---------|
D|-4444-2~-|
A|---------|
D|---------|


Chorus X 2

e|--------------------------------------|
B|--------------------------------------|
G|--------------------------------------|
D|-9-9-9-99--5-5-5555--2-2-22-22-2-2222-|
A|-9-9-9-99--5-5-5555--2-2-22-22-2-2222-|
D|-9-9-9-99--5-5-5555--2-2-22-22-2-2222-|


INTRO X 2

Guitar One (Dist.)
e|--------------------------|
B|--------------------------|
G|--------------------------|
D|-9-9-9---5-7---5-55-77-88-|
A|-9-9-9\--5-5-0-5-55-77-88-|
D|-9-9-9\--5---0-5-55-77-88-|

Guitar Two (Dist.)
e|--------------------------|
B|--------------------------|
G|-11-11-11\----------------|
D|-9--9--9-\----------------|
A|--------------------------|
D|--------------------------|

VERSE X 2
[ Tab from: http://www.guitaretab.com/g/grinspoon/27583.html ]
e|------------------------------------------------|
B|------------------------------------------------|
G|------------------------------------------------|
D|-------------5-55-7-777--------------9-99-7-777-|
A|-9-9-9-9-9-9-5-55-7-777--9-9-9-9-9-9-9-99-7-777-|
D|-9-9-9-9-9-9-5-55-7-777--9-9-9-9-9-9-9-99-7-777-|
  p.m........             p.m........

Guitar Two Fills:
e|----------------------|
B|----------------------|
G|-/11-11-11-11-11-11-9-|
D|----------------------|
A|----------------------|
D|----------------------|
 
e|---------|
B|---------|
G|-4444-2~-|
D|---------|
A|---------|
D|---------|

CHORUS X 2

e|--------------------------------------|
B|--------------------------------------|
G|--------------------------------------|
D|-9-9-9-99--5-5-5555--2-2-22-22-2-2222-|
A|-9-9-9-99--5-5-5555--2-2-22-22-2-2222-|
D|-9-9-9-99--5-5-5555--2-2-22-22-2-2222-|

INTRO X 4

Guitar One (Dist.)
e|--------------------------|
B|--------------------------|
G|--------------------------|
D|-9-9-9---5-7---5-55-77-88-|
A|-9-9-9\--5-5-0-5-55-77-88-|
D|-9-9-9\--5---0-5-55-77-88-|

Guitar Two (Dist.)
e|--------------------------|
B|--------------------------|
G|-11-11-11\----------------|
D|-9--9--9-\----------------|
A|--------------------------|
D|--------------------------|

Bridge X 4

e|---------------------------------------------|
B|---------------------------------------------|
G|------------------------9-7-9----------------|
D|-9-7-9----7-7-7-6-6-6---9-7-9----6-6-6-7-7-7-|
A|-9-7-9----7-7-7-6-6-6---7-5-7----6-6-6-7-7-7-|
D|-9-7-9----7-7-7-6-6-6------------6-6-6-7-7-7-|
				     ^
			2nd Guitar Pick Slide
CHORUS X 4

e|--------------------------------------|
B|--------------------------------------|
G|--------------------------------------|
D|-9-9-9-99--5-5-5555--2-2-22-22-2-2222-|
A|-9-9-9-99--5-5-5555--2-2-22-22-2-2222-|
D|-9-9-9-99--5-5-5555--2-2-22-22-2-2222-|

INTRO X 4

Guitar One (Dist.)
e|--------------------------|
B|--------------------------|
G|--------------------------|
D|-9-9-9---5-7---5-55-77-88-|
A|-9-9-9\--5-5-0-5-55-77-88-|
D|-9-9-9\--5---0-5-55-77-88-|

Guitar Two (Dist.)
e|--------------------------|
B|--------------------------|
G|-11-11-11\----------------|
D|-9--9--9-\----------------|
A|--------------------------|
D|--------------------------|

END ON 

e|--------------------------|
B|--------------------------|
G|--------------------------|
D|-9-7-9--------------------|
A|-9-7-9--------------------|
D|-9-7-9--------------------|
Related for Ready 1 tab
Advertisement will be closed in 10 seconds