Song name
# A B C D E F G H I J K L M N O P Q R S T U V W X Y Z

Grinspoon - Snap Your Fingers Snap Your Neck tab

Help us improve GuitareTab! Take a short survey!
Drop D Tuning Down A Whole Step (low to high: C B C F A D)

Intro

|-----------------------------------------------------|
|-----------------------------------------------------|
|---------------6---------------6---------------------|
|--1--1-0-------0-------0-------0---------------------|
|--1--1-0---------------0---------------12\--gradual--|
|--1--1-0---------------0---------------12\---slide---|
        let ring........................

         (play 7 times)
|--------|------------|-------------------------------|
|--------|------------|-------------------------------|
|--------|------------|-------------------------------|
|--11-0--|--1--1-000--|--1--1-0---------------\-------|
|--11-0--|--1--1-000--|--1--1-0---------------\-------|
|--11-0--|--1--1-000--|--1--1-0---------------\--p.s--|
                         let ring.............

Verse

blah blah...

Bridge

         (play 8 times)
|-------|------------------|
|-------|------------------|
|-------|------------------|
|-------|------------------|
|-------|--00--0--0---0-5--|
|--12\--|--00-30-50-6-0----|
   slight p.m.........


Chorus

|--------------------|
|--------------------|
|--5-55--888--7-777--|
|--------------------|
|--3-33--666--5-555--|
|--------------------|
Related for Snap Your Fingers Snap Your Neck tab