Song name
# A B C D E F G H I J K L M N O P Q R S T U V W X Y Z

Grinspoon - Dial Tone tab

------------------------------------------------------------------------------
        DialTone - Grinspoon
-------------------------------------------------------------------------------
Tuning: Drop D (DADGBE)
Intro
E|-------2---------------|
B|-----2---2-----2-----4-|
G|---3---------3-----3---|
D|-0---------2-----2-----|
A|-----------------------|
D|-----------------------|

Main Riff/Chorus ("Somebody lookin out my window")
E|---------------------------------------|
B|---------------------------------------|
G|---------------------------------------|
D|---------------------------------------|
A|-----5p3p0-----5p3p0-----0h3h5-1/3-3/5-|
D|-0-0-------0-0-------0-0-------1/3-3/5-|
PM * *       * *       * *   
Tap to rate this tab
 
# A B C D E F G H I J K L M N O P Q R S T U V W X Y Z