Song name
# A B C D E F G H I J K L M N O P Q R S T U V W X Y Z

Grinspoon - Replacements tab

This is my first tab, hope it doesn't suck.

Artist:    Grinspoon
Album:     Thrills Kills and Sunday Pills (2004)
Song:      Replacements
Tabbed by: TheReserve

Intro/Verse:

Guitar 1
e|-------------------------------------------------------|
B|-------------------------------------------------------|
G|-------------------------------------------------------|
D|------5---4------------------------5---7---------------|
A|--------------5---2---0h-2p0----------------7---5---2--|
D|--0-0---0---0---0---0--------0-0-----0---0---0---0-----|



Guitar 2 (before the vocals come in)
e|-------------------------------------------------------|
B|-------------------------------------------------------|
G|-------------------------------------------------------|
D|--------------------------(5)--------------------------|
A|----------------------(5)------------------------------|
D|-------------------------------------------------------| x2

Bridge

e|------------------------------|
B|------------------------------|
G|------------------------------|
D|------5----------3--------0---|
A|----5---5------3--------0---0-|
D|--5----------3--------0-------| x3


e|----------------------------------|
B|----------------------------------|
G|----------------------------------|
D|------5----------3--------0-------|
A|----5---5------3--------0---0-----|
D|--5----------3--------0--------0--| x1

Chorus
                                ...There's an emptiness there...
e|-----------------------------|--------------------------|
B|-----------------------------|--------------------------|
G|-----------------------------|--------------------------|
D|--5-5-5-5---5p-0---0-0-0-0---|----3-3-3-3-----5-5-5-5---|
A|--5-5-5-5---5p-0---0-0-0-0---|----3-3-3-3-----5-5-5-5---|
D|--5-5-5-5---5p-0---0-0-0-0---|----3-3-3-3-----5-5-5-5---|



Repeat intro/verse section, ending on
e|---------|
B|---------|
G|---------|
D|---------|
A|---------|
D|--0-0----| (Let ring)


Enjoy
Tap to rate this tab
# A B C D E F G H I J K L M N O P Q R S T U V W X Y Z