Guitaretab - guitar tabs
Song name
# A B C D E F G H I J K L M N O P Q R S T U V W X Y Z

Grinspoon - Overdriver tab

ARTIST - Grinspoon 
ALBUM - Easy
SONG - Overdriver

TUNING =  DADGBE 

Top song but it can get a little boring after a while.. the riffs
and solo's are really good but. enjoy


h= hammer 
p= pull off
\= slide down
/= slidE up  
^= hold 

INTRO w/ DIS (Something heavy)
E|-------------------------------------------------------------| 
B|-------------------------------------------------------------| 
G|-------------------------------------------------------------| 
D|-------------------------------------------------------------| 
A|-3h-5------3h-5-----------3h-5-5/6------3h-5-----------3-----| 
D|------0-0-------0-0--3h-5----------0-0------0-0--3h-5--------| 

END OF INTRO. 
E|-------------------------------------------------------------| 
B|-------------------------------------------------------------| 
G|-------------------------------------------------------------| 
D|-------------------------------------------------------------| 
A|-3h5-----3h5----------3--------------------------------------| 
D|-----0-0-----0-0--3h5----------------------------------------| 


SOLO 1 w/ DIS(Very Light) and WAH
E|-------------------------------------------------------------|
B|-----------------------------6h86----------------------------| 
G|-7h-9/10--7-7h-9/10-9-7-5/7--------7-7h9/10-9-7-5/7--7/9-10--|
D|-------------------------------------------------------------| 
A|-------------------------------------------------------------| 
D|-------------------------------------------------------------| 

E|-------------------------------------------------------------| 
B|------------------6h86---------------------------------------| 
G|-7-7h9/10-9-7-5/7-------7-7h9/10-9-7-5/7-997-775-554-442-----| 
D|-------------------------------------------------------------| 
A|-------------------------------------------------------------| 
D|-------------------------------------------------------------| 


CHORUS W/ DIS and CHORUS
E|-------------------------------------------------------------|
B|-------------------------------------------------------------| 
G|-----------------------------------------------------------3-| 
D|--0-0--------3--0-0---------3h5p3--0-0--------3-0-0--------3-| 
A|--0-0--5-3-5----0-0--5-3-5---------0-0--5-3-5---0-0--5-3-0-1-| 
D|--0-0-----------0-0----------------0-0----------0-0----------| 
[ Tab from: http://www.guitaretab.com/g/grinspoon/39072.html ]
E|-------------------------------------------------------------|
B|-------------------------------------------------------------| 
G|-----------------------------------------------------------3-| 
D|--0-0--------3--0-0---------3h5p3--0-0--------3-0-0--------3-| 
A|--0-0--5-3-5----0-0--5-3-5---------0-0--5-3-5---0-0--5-3-0-1-| 
D|--0-0-----------0-0----------------0-0----------0-0----------| 

E|------------| 
B|------------| 
G|-2----------| 
D|-2----------| 
A|-0----------| 
D|------------|


After the chorus, the start of solo one is played again and 
then SOLO 2 follows straight after it.

START OF SOLO 1
E|-----------------------------------------------------| 
B|-----------------------------6h86--------------------| 
G|-7h-9/10--7-7h-9/10-9-7-5/7--------7-7h9/10-9-7-5/7--|
D|-----------------------------------------------------| 
A|-----------------------------------------------------| 
D|-----------------------------------------------------| 


SOLO 2 W/ LIGHT DIS and WAH
E|---------------------------------------------------------------|
B|------------------------8-6--6---5-5/7--6~12-12-12-10-12-12-12-| 
G|-7-7-9/10-9-7-5-5/7--6^----7---7-------------------------------| 
D|---------------------------------------------------------------| 
A|---------------------------------------------------------------| 
D|---------------------------------------------------------------| 

E|----------------------13-15-15h13-13-13/12-10-12-10-8-7--------| 
B|-10-12-12-12-10-12-15-----------------------------------8-8----| 
G|---------------------------------------------------------------| 
D|---------------------------------------------------------------| 
A|---------------------------------------------------------------|
D|---------------------------------------------------------------|

E|-6-8-6--8-6-8-6------------------------------------------------| 
B|----------------8-8-8-6-6-6-6-5-5-5-5-3-3-3-3--0---------------| 
G|----------------7-7-7~5-5-5-5~4-4-4-4~2-2-2-2--0---------------| 
D|---------------------------------------------------------------| 
A|---------------------------------------------------------------| 
D|---------------------------------------------------------------| 

just play VERSE CHORUS VERSE etc.. i dont know the order but it 
aint too hard to figure out. thats all the different parts up there.
Related for Overdriver tab