Song name
# A B C D E F G H I J K L M N O P Q R S T U V W X Y Z

Grinspoon - Hold On Me tab

-------------------------------------------------------------------------------
			     Hold On Me - Grinspoon
-------------------------------------------------------------------------------
Tabbed by: Uber-rocker...... My first tab, please rate!!
Email: kaigrant_88@hotmail.com

Tuning: Standard - eBGDAE

Intro

e|x---------x---------x---------x--------------------------------------------|
B|x---------x---------x---------x--------------------------------------------|
G|x5--------x5--------x5--------x5-------------------------------------------|
D|x55557575-x55557575-x55557575-x55557575------------------------------------|
A|x35557575-x35557575-x35557575-x35557575------------------------------------|
E|x-3335353-x-3335353-x-3335353-x-3335353------------------------------------|

Verse

e|---------------------------------------------------------------------------|
B|---------------------------------------------------------------------------|
G|-------------------10b-10b-10b-10b-7b-7b-7b-7b-----------------------------|
D|777-7777-7777-7777---------------------------------------------------------|
A|777-7777-7777-7777---------------------------------------------------------|
E|555-5555-5555-5555---------------------------------------------------------|
  PM  PM-  PM-


                                               Play once for first chorus, 
Chorus                                        three times for chorus 2 + 3
                                                   /             \
e|---------------------------------------------------------------------------------------|
B|---------------------------------------------------------------------------------------|
G|--------77777777--------77777777--------77777777---------------------------------------|
D|333333337777777733333333777777773333333377777777-777-555-333-555-33-233-233-23232------|
A|333333335555555533333333555555553333333355555555-777-555-333-555-33-233-233-23232------|
E|11111111--------11111111--------11111111---------555-333-111-333-11-011-011-01010------|
                                                   PM  PM  PM   

Solo

e|x---------x----------------------------------------------------------------------------------|
B|x---------x----------------------------------------------------------------------------------|
G|x5--------x5--------------9-------------------9----------9/12-14-14-12-14-9/12-14-14b-12-14~-|
D|x55557575-x55557575-11-12---12-11----12-11-12---12-11----------------------------------------|
A|x35557575-x35557575---------------12------------------12-------------------------------------|
E|x-3335353-x-3335353--------------------------------------------------------------------------|


ORDER:	Intro x 4
	Verse x 4
	Chorus
	Verse x 4
	Chorus
	Solo
	Verse x 2
	Chorus	



| /  slide up
| \  slide down
| h  hammer-on
| p  pull-off
| ~  vibrato
| +  harmonic
| x  Mute note
===============================================================================
Tap to rate this tab
# A B C D E F G H I J K L M N O P Q R S T U V W X Y Z