Guitaretab - guitar tabs
Song name
# A B C D E F G H I J K L M N O P Q R S T U V W X Y Z

Grinspoon - Thrills Kills And Sunday Pills tab

I hate looking all over the net for an album and seeing that all the songs are posted
individually. So here's the GRINSPOON: Thrills Kills and Sunday Pills Album. RATE IT

TRACK 1 Hard Act to Follow                

VERSE RIFF:
E-|--------------------------|-
B-|--------------------------|-
G-|-4-4-4--4-4--4-4-2--7-----|-
D-|-4-4-4--4-4--4-4-2--7--2--|-
A-|-2-2-2--2-2--2-2-0--5--2--|-
E-|-----------------------0--|-

PRE CHORUS:
    P.M...............................................................
E-|--------------------------------------------------------------------|----|-
B-|--------------------------------------------------------------------|----|-
G-|--------------------------------------------------------------------|----|-
D-|-----------------------------------7-7-7-7-7-7-7-7------------------|-7--|-
A-|-2-2-2-2-2-2-2-2--2-2-2-2-2-2-2-2--5-5-5-5-5-5-5-5--7-7-7-7-7-7-7-7-|-7--|-
E-|-0-0-0-0-0-0-0-0--0-0-0-0-0-0-0-0-------------------5-5-5-5-5-5-5-5-|-5--|-

CHORUS:
E-|-------------------------------------------------|-
B-|---------------7---7-----------------------------|-
G-|-4--4--4--4----7---7-----------------------------|-
D-|-4--4--4--4--x-7-x-7--7--7--7--7---5-5-5--7-7-7--|-
A-|-2--2--2--2--x-5-x-5--7--7--7--7---5-5-5--7-7-7--|-
E-|----------------------5--5--5--5---3-3-3--5-5-5--|-

SOLO CHORDS:
E-|-----------------------------------------------|-
B-|-----------------------------------------------|-
G-|-4-4-4--x-2--4--7--2---------------------------|-
D-|-4-4-4--x-2--4--7--2----2-2-2--5--5-5--7--7-7--|-
A-|------------------------2-2-2--5--5-5--7--7-7--|-
E-|------------------------0-0-0--3--3-3--5--5-5--|-

SOLO:
E-|-----------------------------------------------------------|-
B-|-------------------------9-7-----------------12-----10/12--|-
G-|---------------------7---9-7-----------9/11--11--11--------|-
D-|-4h5-7-7--4h5-9-9------9-----9~~\--------------------------|-
A-|-----------------------------------------------------------|-
E-|-----------------------------------------------------------|-

E-|---------------------------------------|-
B-|---------------------------------------|-
G-|-14b16~~-------------------------------|-
D-|-----------------------7-9~~~----------|-
A-|---------------------------------------|-
E-|---------------------------------------|-

E-|-------7-7-----------9b~---12b--10h12p10----------|-
B-|-7-----7-7---X5--------------------------12-12~~--|-
G-|-9b11---------------------------------------------|-
D-|--------------------------------------------------|-
A-|--------------------------------------------------|-
E-|--------------------------------------------------|-

LAST PRE CHORUS:
    P.M...............................................................
E-|--------------------------------------------------------------------|-
B-|--------------------------------------------------------------------|-
G-|--------------------------------------------------------------------|-
D-|-----------------------------------7-7-7-7-7-7-7-7------------------|-
A-|-2-2-2-2-2-2-2-2--2-2-2-2-2-2-2-2--5-5-5-5-5-5-5-5--7-7-7-7-7-7-7-7-|-
E-|-0-0-0-0-0-0-0-0--0-0-0-0-0-0-0-0-------------------5-5-5-5-5-5-5-5-|-

    P.M...............................................................
E-|--------------------------------------------------------------------|----|-
B-|--------------------------------------------------------------------|----|-
G-|--------------------------------------------------------------------|----|-
D-|-----------------------------------7-7-7-7-7-7-7-7------------------|-7--|-
A-|-2-2-2-2-2-2-2-2--2-2-2-2-2-2-2-2--5-5-5-5-5-5-5-5--7-7-7-7-7-7-7-7-|-7--|-
E-|-0-0-0-0-0-0-0-0--0-0-0-0-0-0-0-0-------------------5-5-5-5-5-5-5-5-|-5--|-



TRACK 2 - Hold On

Intro/Bridge
E-------------------------------|
b-------------------------------|
g---5---------------------------|
d---5--5--5-------5--7--5--7----|
a---3--5--5-------5--7--5--7----|
e------3--3-------3--5--3--5----|


Verse Gutiar 1
E----------------------------------------------|
b----------------------------------------------|
g----------------10--10--10--10---7--7--7--7---|
d-----------7----10--10--10--10---7--7--7--7---|
a--7--7--7--7----8---8---8---8----5--5--5--5---|
e--5--5--5--5----------------------------------|

Verse Gutiar 2 (over the 8 10 10 and 5 7 7 chords)
E---------------------------------------------------|
b---6-----6-----6-----6--------3----3----3-----3----|
g---9b10--9b10--9b10--9b10-----6b7--6b7--6b7---6b7--|
d---------------------------------------------------|
a---------------------------------------------------|
e---------------------------------------------------|

Prechorus x2
E--------------------------------|
b--------------------------------|
g-------------------7--7--7--7---|
d---3--3--3--3------7--7--7--7---|
a---3--3--3--3------5--5--5--5---|
e---1--1--1--1-------------------|


Chorus
E-----------------------------------------------------------|
b-----------------------------------------------------------|
g--------------------------5-5------------------------------|
d---7--7--7---5-5-5--4-4-4-5-5-3-3--3-3-3---3-3-3---3-3-3---|
a---7--7--7---5-5-5--4-4-4-3-3-3-3--3-3-3---3-3-3---3-3-3---|
e---5--5--5---3-3-3--2-2-2-----1-1--0-1-1---0-1-1---0-1-1---|




Lead riffs:
E-------------------------------------------------------------------------|
b-------------------------------------------------------------------------|
g--6-6-7-9-7-6-----6-6-7-9-7-6---------8--10--10-8-10-----8-10-11b10-8-10-|
d--------------7---------------7---7s9-----------------7s9----------------|
a-------------------------------------------------------------------------|
e-------------------------------------------------------------------------|


TRACK 3 - Choke

THIS ONE IS IN DROP D
Guitar riff:
E---------------------------------------------------------|
b---------------------------------------------------------|
g----------2---2--4----------2---2s4----------2----2------|
d------2s4---4-----------2s4---4----------2s4---4----4----|
a--2-2----------------------------------------------------|
d--------------------3-3--------------2-2-----------------|

E----------------------|
b----------------------|
g-----------2----------|
d------2s4----4--------|
a----------------5-4---|
d--0-0-----------------|


Chorus
E-----------------------------------------------|
b-----------------------------------------------|
g------------------------------2-2-2-2--5-5-5---|
d--2-2-2-2---4-4-4-4--4-4-2-4--2-2-2-2--5-5-5---|
a--2-2-2-2---4-4-4-4--4-4-2-4--0-0-0-0--3-3-3---|
d--2-2-2-2---4-4-4-4--4-4-2-4-------------------|

Bridge
E------------------------------------------------------------------------------|
b------------------------------------------------------------------------------|
g--6-6-6-6--4-4-4-4-----------2-2-2-2---6-6-6-6--4-4-4-4-----------2-2-2-2-3-3-|
d--6-6-6-6--4-4-4-4--0-0-0-0--2-2-2-2---6-6-6-6--4-4-4-4--0-0-0-0--2-2-2-2-3-3-|
a--4-4-4-4--2-2-2-2--0-0-0-0--0-0-0-0---4-4-4-4--2-2-2-2--0-0-0-0--0-0-0-0-1-1-|
d--------------------0-0-0-0------------------------------0-0-0-0--------------|



TRACK 4 - Bleed You Dry

Note: Its DROP D. And There's something played over the verse bit which I can't
quite make out, but it just changes from d to c.

INTRO/CHORUS
E--------------------------------|-----------------------|
b--------------------------------|-----------------------|
g--------------------------------|-----------------------|
d------------------3-------------|--3-3-3-3--5-5-5-3--0--|
a--3--5----------3---5--3--5-----|--3-3-3-3--5-5-5-3--0--|
d--------0--3-h5--------------0--|--3-3-3-3--5-5-5-3--0--|


After Chorus / Outro
E------------------------------------------------------------|
b------------------------------------------------------------|
g------------------------------------------------------------|
d-----------3----------5-----------3--s6-5--3--5--3----------|
a-----3--5-------3--5--------3--5--------------------5--3-5--|
d--0-----------0----------0----------------------------------|

Bridge
E----------------------------------------------------------------------------|
b----------------------------------------------------------------------------|
g-------------10--10-10-10---------------------------------------------------|
d---5-5-5-5---10--10-10-10--3-3-3-3--3-3-3-3----third time:--1-1-1-1-1-1-1-1-|
a---5-5-5-5---8---8--8--8---3-3-3-3--3-3-3-3-----------------1-1-1-1-1-1-1-1-|
d---5-5-5-5---8---8--8--8---3-3-3-3--3-3-3-3-----------------1-1-1-1-1-1-1-1-|




TRACK 5 - Enemy

Note: Chords for guitar 2 in the prechorus are lacking

INTRO

E------2--------2------------1-------1--------|
b----1---1----1---1----1---1---1---1---1---1--|
g---------------------------------------------|
d--0--------0--------0---0-------0-------0----|
a---------------------------------------------|
d---------------------------------------------|


Pre chorus
E-----------------------------------|
b--------6-------6-------6-------6--|
g---4-4----4-4-4---4-3-3---3-3-3----|
d-----------------------------------|
a-----------------------------------|
d-----------------------------------|

Chorus chords 1:
E------------------|
b------------------|
g----7--5------3---|
d----7--5---5--3---|
a----5--3---2--1---|
d------------------|

Alternate chorus chords
E--------------------|
b--3----1---3---3----|
g--2----0---2---2----|
d--0----2---0---0----|
a-------3---2---1----|
d--------------------|

Second Chorus ends on
E---------------|
b-----------1---|
g---5-------0---|
d---5---or--2---|
a---3-------3---|
d---------------|



TRACK 6 - Rising Tide
[ Tab from: http://www.guitaretab.com/g/grinspoon/58964.html ]
Intro Riff
E---9-10---9-10--12---9---9----------------------------|
b--10-10--10-10--10--10--10----------------10--9---5---|
g----------------------------4 times then--------------|
d------------------------------------------------------|
a------------------------------------------------------|
e------------------------------------------------------|

Intro/Verse Chords
E--------------------------------------------|
b--------------------------------------------|
g--------------------7-7-9-9--11-11--11-11---|
d--7-7-----7-7-7-7---------------------------|
a--7-7-7-7-7-7-7-7---5-5-7-7--9--9---9--9----|
e--5-5-4-4-5-5-5-5---------------------------|


Chorus Chords 1
E------------------------------------|
b------------------------------------|
g--2-2-2-2----------7--7--7-7--------|
d--2-2-2-2-x4 then--7--7--7-7--x4----|
a--0-0-0-0----------5--5--5-4--------|
e------------------------------------|


Chorus Chords 3
E---------------------------------------------|
b--10-10-10----10-10-10-10--------------------|
g--9--9--9------9--9--9-9-------7--7--7-7-----|
d--7--7--7-x3---6--6--6-6--x1---7--7--7-7--x4-|
a--0--0--0------0--0--0-0-------5--5--5-4-----|
e---------------------------------------------|


Interlude
E--------------------5--------------------------------------------|
b-----------------------5-----------------------------------------|
g-------------------------------5-5-5-5--7-7-7-7--9-9-9-9-9-9-9-9-|
d--7---6---9---7-----------7--------------------------------------|
a--0---0---0---0----------------5-5-5-5--7-7-7-7--9-9-9-9-9-9-9-9-|
e-----------------------------------------------------------------|



TRACK 7 - Better Off Alone

Intro:
E---3--2--3--2----0--0-0---0--0--0---0-0-0---0-0-0---|
b---3--3--3--3----0--3-0---0--3--0---0-3-0---0-3-0---|
g---0--0--0--0----0--0-0---0--0--0---0-0-0---2-2-2---|
d---0--0--0--0----2--2-2---2--2--2---2-2-2---2-2-2---|
a---x--x--x--x----2--2-2---2--2--2---3-3-3---0-0-0---|
e---3--3--3--3----0--0-0---0--0--0-------------------|


Main progression (Verse)
E---3--2--3--2----0--0-0---0--0--0---|
b---3--3--3--3----0--3-0---0--3--0---|
g---0--0--0--0----0--0-0---0--0--0---|
d---0--0--0--0----2--2-2---2--2--2---|
a---x--x--x--x----2--2-2---2--2--2---|
e---3--3--3--3----0--0-0---0--0--0---|

Prechorus
E-0-0-0---0-0-0---|
b-0-3-0---0-3-0---|
g-0-0-0---2-2-2---|
d-2-2-2---2-2-2---|x2
a-3-3-3---0-0-0---|
e-----------------|

Chorus
E---3--2--3--2----0--0-0---0--0--0---0-0-0---0-0-0-----3--2--3--2-|
b---3--3--3--3----0--3-0---0--3--0---0-3-0---0-3-0-----3--3--3--3-|
g---0--0--0--0----0--0-0---0--0--0---0-0-0---2-2-2-----0--0--0--0-|
d---0--0--0--0----2--2-2---2--2--2---2-2-2---2-2-2-----0--0--0--0-|
a---x--x--x--x----2--2-2---2--2--2---3-3-3---0-0-0-----x--x--x--x-|
e---3--3--3--3----0--0-0---0--0--0---------------------3--3--3--3-|

Bridge
E-------------0--------------------|
b--3----------0--------------------|
g--4---2------0-----------4---2----|
d--4---2------2-----------5---2----|
a--2---0------2-----------5---0----|
e-------------0---0-2--3--3--------|

Bridge lead
E--------------------------------|
b--12--12--14--15--15-14-12-10---|
g--------------------------------|
d--------------------------------|
a--------------------------------|
e--------------------------------|



TRACK 8 - Kiss It


Intro/Main Riff
E-------------------------------------|
b-------------------------------------|
g-------------------------------------|
d-------------------------------------|
a---7-7-7-7-7-5-----------------------|
e----------------7---3-3-3-0--5---3---|


Verse
E------------------------------|
b------------------------------|
g---9-9-9-9-9-7----------------|
d---9-9-9-9-9-7--5-5-5-5-5-5---|
a---7-7-7-7-7-5--5-5-5-5-5-5---|
e----------------3-3-3-3-3-3---|

Prechorus/Verse Interlude
E------------------------------------|
b------------------------------------|
g------------------------------------|
d----7----7----7----7---8-8-8-8---x2-|
a----7----7----7----7---8-8-8-8------|
e--0-5--0-5--0-5--0-5-0-6-6-6-6------|


Chorus (listen to song for strumming pattern)
E-------x--------------x--------------x-------------x---|
b-------3--------------3--------------3-------------3---|
g-4--2--0--------4--2--0--------4--2--0--2----4--2--0---|
d-4--2--0--2-----4--2--0--2-----4--2--0--2----4--2--0---|
a-2--0--x--2-----2--0--x--2-----2--0--x--0----2--0--x---|
e-------3--0-----------3--0-----------3-------------3---|

Bridge picking riff
E-----------------------------------------0---------0---|
b-------------------------------------------0---------0-|
g-------------------------------------------------------|
d------0-------0-------0-------0-------2----------2-----|
a----2---2---2---2---4---4---4---4---2----------2-------|
e--3-------3-------5-------5-------0----------0---------|

Bridge Lead bits
E---9-10---12-------17b18---16-----9-10----13b14p12p10--12---|
b------------------------------------------------------------|
g------------------------------------------------------------|
d------------------------------------------------------------|
a------------------------------------------------------------|
e------------------------------------------------------------|




TRACK 9 - She's Leaving Tuesday


Intro/Prechorus
E---------------------|
b---------------------|
g---0-0--0---0-----0--|
d---2-2--4-----4------|
a---3-3--5-------5----|
e---------------------|

Verse
E---0--0--0--0---0--0--0---0---3-3-2-2--|
b---3--1--3--3---0--3--3---0---0-0-0-0--|
g---0--0--0--2---0--0--2---0---0-0-0-0--|
d---2or2--4or0---2--2--0---2---2-2-2-2--|
a---3--3--5------2--3------2---2-2-2-2--|
e----------------0---------0---0-0-0-0--|

Chorus
E------0-0-x---------------------0-x------------------|
b--5-5-1-0-3---------------------1-3------------------|
g--5-5-2-0-0---------------------2-0------------------|
d--5-5-2-2-0--x2-3-3-3-3-2-2-2-2-2-0-3-3-3-3-2-2-2-2--|
a--3-2-0-2-x-----3-3-3-3-2-2-2-2-0-x-3-3-3-3-2-2-2-2--|
e--------0-3-----1-1-1-1-0-0-0-0---3-1-1-1-1-0-0-0-0--|

Solo
E-------------------------------------------------------|
b------------------------------------8------------------|
g--7-9-7-9-9-7-------------7h9-9-7-9---9-9-7------------|
d--------------9-8-7-------------------------9-8-7------|
a--------------------10-7--------------------------10-7-|
e-------------------------------------------------------|

E------0-0-----0-0--0--------------------------|
b--5---5-5-5---5-5--5--------------------------|
g--7b9-9-9-7b9-9-9--9b7-4--and again similar---|
d----------------------------------------------|
a----------------------------------------------|
e----------------------------------------------|



TRACK 10- Nylon


Intro/Chorus
E--0--0-------0--0-----|
b--0--0-------0--0-----|
g--1--2----or-x--x-----|
d--2--2-------6--7-----|
a--0--0-------7--7-----|
e-------------5--5-----|

Verse
E--0--0--0--0--|
b--0--0--0--3--|
g--1--1--1--2--|
d--2--2--2--0--|
a--0--x--2-----|
e-----2--0-----|

Prechorus
E--0---4--0--0--|
b--0---5--3--1--|
g--1---6--2--2--|
d--2---6--0--3--|
a--0---4-----3--|
e------------1--|

Second Verse Lead
E--------------12--10-9------------------------------12-10-9----12-10-9------|
b---9-10--12------------10----12-12b13b12--12b13b12----------10---------10---|
g----------------------------------------------------------------------------|
d----------------------------------------------------------------------------|
a----------------------------------------------------------------------------|
e----------------------------------------------------------------------------|

Solo (not 100%, but that's basically it)
E----------------------------------------------|
b----------------------------------------------|
g--9h11-13-11--13--11--13-14--16--16b18b16-----|
d------------------------------------------14--|
a----------------------------------------------|
e----------------------------------------------|

E-------------------------12-----12--12---12--12------|
b-----------------12---12b14b12b14b12b14b12b14b12-----|
g--13-13-11-13-14---------------------------------9---|
d-----------------------------------------------------|
a-----------------------------------------------------|
e-----------------------------------------------------|



TRACK 11 - Hide Away

Intro/verse riff
E----------------------------------------------------------------------|
b----------------------------------------------------------------------|
g----------------------------------------------------------------------|
d----------------------------------------------------------------------|
a------10------9h10-9------7------9------10------9h10-9------7------5--|
d-0000----0000--------0000---0000---0000----0000--------0000---0000----|

Chord in verse
E-----------|
b-----------|
g----5--7---|
d----5--7---|
a----5or5---|
d----5--5---|

Chorus
E----------------------------------------------|
b----------------------------------------------|
g-----------5-5-5-5----------3-3-3-3---5-5-5-5-|
d--0-0-0-0--5-5-5-5-5-5-5-5--3-3-3-3---5-5-5-5-|
a--0-0-0-0--3-3-3-3-5-5-5-5--1-1-1-1---3-3-3-3-|
d--0-0-0-0----------5-5-5-5--------------------|

Bridge
E-----------------------------------------------|
b-----------------------------------------------|
g----7--9--10--14-------------------------------|
d------------------8--x2--5-5-7--8-8--3---0~----|
a----5--7--8---12--8------5-5-7--8-8--3---0~----|
d------------------8------5-5-7--8-8--3---0~----|





TRACK 12 - Replacement

DROP D

Intro/ Main Riff
E------------------------------------------------|----------|
b------------------------------------------------|----------|
g------------------------------------------------|-----(7)--|
d---5---4---------------------5---4---7----------|--(7)-----|
a------------2---3---3p2p0----------------2---3--|----------|
d-0---0----0---0---0--------0---0---0---0---0----|----------|

Chorus
E-----------------------------|
b-----------------------------|
g-----------------------------|
d------3-------5--------0-----|
a----3---3---5---5----0---0---|
d--3-------5-------0----------|

Bridge/Outro
E-----------------|
b-----------------|
g---12---7---4-5--|
d---12---7---4-5--|
a---10---5---2-3--|
d--------0--------|



Thanks to www.ozmusic-central.com.au
Related for Thrills Kills And Sunday Pills tab