Song name
# A B C D E F G H I J K L M N O P Q R S T U V W X Y Z

Grinspoon - Bleed You Dry tab

Intro: 

|-----------------------------------------------------------|
|-----------------------------------------------------------|
|-----------------------------------------------------------|
|--------------------------------3--------------------------|  x3
|--3----5(h)-------------------3---------0--3(h)----5-------|
|------------0----3----5(h)------------------------------0--|

Intro End:
|----------------------------|
|----------------------------|
|----------------------------|
|--3--3--3--3--5--5--5-3--0--|
|--3--3--3--3--5--5--5-3--0--|
|--3--3--3--3--5--5--5-3--0--|

Verse:
|----------------------------|
|----------------------------|
|----------------------------|
|--3--0-Etc.-----------------|
|--3--0-Etc.-----------------|
|--3--0-Etc.-----------------|


Chorus:

|--------------------------------------------------|
|--------------------------------------------------|
|--------------------------------------------------|
|--5--5--5--5--5--5--5--5--5--5--5--5--5--5--5--5--|
|--5--5--5--5--5--5--5--5--5--5--5--5--5--5--5--5--|
|--5--5--5--5--5--5--5--5--5--5--5--5--5--5--5--5--|

   P.M. .........................................

|-----------------------------------------------------------|
|-----------------------------------------------------------|
|-----------------------------------------------------------|
|--------------------------------3--------------------------|  x3
|--3----5(h)-------------------3---------0--3(h)----5-------|
|------------0----3----5(h)------------------------------0--|


|-------------------------|
|-------------------------|
|-------------------------|
|--3--3--3--3--5--5--5-3--|
|--3--3--3--3--5--5--5-3--|
|--3--3--3--3--5--5--5-3--|

|-----------------------------------------------------------|
|-----------------------------------------------------------|
|-----------------------------------------------------------|
|--------------------------------------3--------------------|  x3
|--3----5(h)-------------------3---------0--3(h)----5-------|
|------------0----3----5(h)------------------------------0--|


|----------------------------|
|----------------------------|
|----------------------------|
|--3--3--3--3--5--5--5-3--0--|
|--3--3--3--3--5--5--5-3--0--|
|--3--3--3--3--5--5--5-3--0--|



Solo: -

|----------------------------------------------------------------------------------|
|----------------------------------------------------------------------------------|
|----------------------------------------------------------------------------------|
|---------------3---------------5----------------3----5(h)/7--5--3--5--3-----------|
|-------3--5(h)---------3--5(h)----------3--5(h)--------------------------5--3--5--|
|--0---------------0----------------0----------------------------------------------|


Break: -

|------------------------------------------------------|
|------------------------------------------------------|
|------------------------------------------------------|
|--5--5--5--5--8--8--8--8--3--3--3--3--10--10--10--10--|  x3
|--5--5--5--5--8--8--8--8--3--3--3--3--10--10--10--10--|
|--5--5--5--5--8--8--8--8--3--3--3--3--10--10--10--10--|


|--------------------------|
|--------------------------|
|--------------------------|
|--1--1--1--1--1--1--1--1--|  x3
|--1--1--1--1--1--1--1--1--|
|--1--1--1--1--1--1--1--1--|


|-----------------------------------------------------------|
|-----------------------------------------------------------|
|-----------------------------------------------------------|
|--------------------------------3--------------------------|
|--3----5(h)-------------------3---------0--3(h)----5-------|
|------------0----3----5(h)------------------------------0--|
Tap to rate this tab
# A B C D E F G H I J K L M N O P Q R S T U V W X Y Z