Guitaretab - guitar tabs
Song name
# A B C D E F G H I J K L M N O P Q R S T U V W X Y Z

Grinspoon - Kiss It tab

::Kiss It - Thrills Kills and Sunday Pills - Grinspoon::
         Great Song. Catchy Riff.


Intro/Main Riff
E-------------------------------------|
b-------------------------------------|
g-------------------------------------|
d-------------------------------------|
a---7-7-7-7-7-5-----------------------|x8
e----------------7---3-3-3-0--5---3---|


Verse


E------------------------------|
b------------------------------|
g---9-9-9-9-9-7----------------|
d---9-9-9-9-9-7--5-5-5-5-5-5---|
a---7-7-7-7-7-5--5-5-5-5-5-5---|x4
e----------------3-3-3-3-3-3---|

Prechorus/Verse Interlude
E------------------------------------|
b------------------------------------|
g------------------------------------|
d----7----7----7----7---8-8-8-8------|
a----7----7----7----7---8-8-8-8------|x2
e--0-5--0-5--0-5--0-5-0-6-6-6-6------|

Verse
[ Tab from: http://www.guitaretab.com/g/grinspoon/81430.html ]
Chorus
E-------x--------------x--------------x-------------x---|
b-------3--------------3--------------3-------------3---|
g-4--2--0--------4--2--0--------4--2--0--2----4--2--0---|
d-4--2--0--2-----4--2--0--2-----4--2--0--2----4--2--0---|
a-2--0--x--2-----2--0--x--2-----2--0--x--0----2--0--x---|
e-------3--0-----------3--0-----------3-------------3---|

Main Riff

Verse Interlude

Verse

Chorus

       Bridge 2 guitars 
Riff
E-----------------------------------------0---------0---|
b-------------------------------------------0---------0-|
g-------------------------------------------------------|
d------0-------0-------0-------0-------2----------2-----|
a----2---2---2---2---4---4---4---4---2----------2-------|
e--3-------3-------5-------5-------0----------0---------|

Lead 
E---9-10---12-------17b18---16-----9-10----13b14p12p10--12---|
b------------------------------------------------------------|
g------------------------------------------------------------|
d------------------------------------------------------------|
a------------------------------------------------------------|
e------------------------------------------------------------|

Verse Interlude

Main Riff

drums and vocals

Chorus

::Have Fun::
Related for Kiss It tab