Song name
# A B C D E F G H I J K L M N O P Q R S T U V W X Y Z

Grinspoon - Boundary tab

Artist: Grinspoon
Song: Boundary
Album: Guide to better living

Drop D Tuning (low to high: D A D G B E)

Intro

(play 4 times)
|---------------------------------------|
|---------------------------------------|
|---------------------------------------|
|--12-11-10-12-11-10-12-11-10-12-11-10--|
|--12-11-10-12-11-10-12-11-10-12-11-10--|
|--12-11-10-12-11-10-12-11-10-12-11-10--|


Verses

(play 4 times)
|---------------------------------------------------------|
|---------------------------------------------------------|
|---------------------------------------------------------|
|--12-12-12/15-15-15--12-12-12/15--10-10-10-103-3-3-3-----|
|--12-12-12/15-15-15--12-12-12/15--10-10-10-103-3-3-3-----|
|--12-12-12/15-15-15--12-12-12/15--10-10-10-103-3-3-3-----|

1. I've got a trademark, for registration
So get your gold card, and make me happy
I lost my brother, he was a good man
I'm sure the others, will throw the ball in

2. You tried to stop them, but they kept going
Penalty victim, for boundary throw in
Don't bother me cos, I never smoke that
I'm sure the others, had an abortion

3. You got a trademark for registration
So get your gold card, and lets be happy
I love the others, I'm contradicted
You said it's over, but i won't listen


Chorus

|---------------------------------|
|---------------------------------|
|---------------------------------|
|--5-------3---/10-10-10-10-10-8--|
|--5-------3---/10-10-10-10-10-8--|
|--5-------3---/10-10-10-10-10-8--|
Boundary
|----------------------------------|
|----------------------------------|
|----------------------------------|
|--5-------3---/10-10-10-10-10-12--|
|--5-------3---/10-10-10-10-10-12--|
|--5-------3---/10-10-10-10-10-12--|


Solo

Gtr. 1
|------------------------------------------------------|
|------------------------------------------------------|
|------------------------------------------------------|
|--0--0-3-------10----------0--0-3-------10------------|
|--0--0-3-------10----------0--0-3-------10---10/17----|
|--0--0-3-3p0-0-10-0-103---0--0-3-3p0-0-10-0-10/17-----|

|------------------------------------------------------|
|------------------------------------------------------|
|------------------------------------------------------|
|--0--0-3-------10----------0--0-3-------10------17----|
|--0--0-3-------10----------0--0-3-------10------17----|
|--0--0-3-3p0-0-10-0-103---0--0-3-3p0-0-10-0-1017------|

|-----------------------------------------------------|
|-----------------------------------------------------|
|-----------------------------------------------------|
|--0--0-3-------10----------0--0-3-------10-----------|
|--0--0-3-------10----------0--0-3-------10-----------|
|--0--0-3-3p0-0-10-0-103---0--0-3-3p0-0-10-0-10/5-----|
Tap to rate this tab
# A B C D E F G H I J K L M N O P Q R S T U V W X Y Z