Song name
# A B C D E F G H I J K L M N O P Q R S T U V W X Y Z

Grinspoon - Pedestrian tab

Artist: Grinspoon
Song: Pedestrian
Album: Guide To Better Living


. = Palm Mute


DROP D TUNNING (DADGBe)


INTRO

e|-------------------------------|   
B|-------------------------------|
G|-------------------------------|   
D|--0-2-3-0-2-3-0-2-3-0-2-3-333--|
A|--0-2-3-0-2-3-0-2-3-0-2-3-xxx--|
D|--0-2-3-0-2-3-0-2-3-0-2-3-111--|

e|--------------------------------|   
B|--------------------------------|    x3
G|---------------------------333--|   
D|--0--2-3-0-2-3-0-2-3-0-2-3-xxx--|
A|--0--2-3-0-2-3-0-2-3-0-2-3-111--|
D|--0--2-3-0-2-3-0-2-3-0-2-3------|


VERSE

e|---------------------|   
B|---------------------|    x4
G|---------------------|   
D|--3-5555-3-5-5555-3--|
A|--3-5555-3-5-5555-3--|
D|--3-5555-3-5-5555-3--|


CHORUS

e|--------------------------------|   
B|--------------------------------|    x4
G|---------------------------333--|   
D|--0--2-3-0-2-3-0-2-3-0-2-3-xxx--|
A|--0--2-3-0-2-3-0-2-3-0-2-3-111--|
D|--0--2-3-0-2-3-0-2-3-0-2-3------|


VERSE

e|---------------------|   
B|---------------------|    x4
G|---------------------|   
D|--3-5555-3-5-5555-3--|
A|--3-5555-3-5-5555-3--|
D|--3-5555-3-5-5555-3--|


CHORUS

e|--------------------------------|   
B|--------------------------------|    x4
G|---------------------------333--|   
D|--0--2-3-0-2-3-0-2-3-0-2-3-xxx--|
A|--0--2-3-0-2-3-0-2-3-0-2-3-111--|
D|--0--2-3-0-2-3-0-2-3-0-2-3------|

BRIDGE

    . . . . . . . . . . . . . . . 
e|---------------------------------|   
B|---------------------------------|     x4
G|---------------------------------|   
D|--0-3-0-2-3-0-0-3-3-0-0-3-2-0-0--|
A|--0-3-0-2-3-0-0-3-3-0-0-3-2-0-0--|
D|--0-3-0-2-3-0-0-3-3-0-0-3-2-0-0--|
    . . . . . . . . . . . . . . .

e|---------------------------------|   
B|---------------------------------|    x4 
G|---------------------------------|   
D|--0-3-0-2-3-0-0-3-3-0-0-3-2-0-0--|
A|--0-3-0-2-3-0-0-3-3-0-0-3-2-0-0--|
D|--0-3-0-2-3-0-0-3-3-0-0-3-2-0-0--|
    

///////PICKSLIDE///////

VERSE

e|---------------------|   
B|---------------------|    x4
G|---------------------|   
D|--3-5555-3-5-5555-3--|
A|--3-5555-3-5-5555-3--|
D|--3-5555-3-5-5555-3--|


CHORUS/OUTRO

e|--------------------------------|   
B|--------------------------------|    x3
G|---------------------------333--|   
D|--0--2-3-0-2-3-0-2-3-0-2-3-xxx--|
A|--0--2-3-0-2-3-0-2-3-0-2-3-111--|
D|--0--2-3-0-2-3-0-2-3-0-2-3------|

e|------------------------------------|   
B|------------------------------------|    
G|------------------------------------|   
D|--0--2-3-0-2-3-0-2-3-0-2-3-0-0-0-0--|
A|--0--2-3-0-2-3-0-2-3-0-2-3-0-0-0-0--|
D|--0--2-3-0-2-3-0-2-3-0-2-3-0-0-0-0--|
Tap to rate this tab
# A B C D E F G H I J K L M N O P Q R S T U V W X Y Z