Guitaretab - guitar tabs
Song name
# A B C D E F G H I J K L M N O P Q R S T U V W X Y Z

Grinspoon - Pressure Tested tab

Artist: Grinspoon
Song: Pressure tested 1984
Album: Guide To Better Living



\ = Slide Down
/ = Slide Up
p = Pull Off
^ = Bendd String
r = Release Bend
~(Fret)~ = Wah + Let Ring
~ = Vibrato

DROP D TUNNING (DADGBe)


INTRO  x2

e|------------------------------------------------------|   
B|------------------------------------------------------|  
G|-------------------------8-------------------------9--|   
D|--7-5-5-6--6-7-5-5-6--6--x--7-5-5-6--6-7-5-5-6--6--x--|
A|--7-5-5-6--6-7-5-5-6--6--6--7-5-5-6--6-7-5-5-6--6--7--|
D|--7-5-5-6--6-7-5-5-6--6-----7-5-5-6--6-7-5-5-6--6-----|


VERSE  x2

e|------------------------|   
B|------------------------|   x3
G|------------------------|   
D|--7-5-5-6-6-7-5-5-6--6--|
A|--7-5-5-6-6-7-5-5-6--6--|
D|--7-5-5-6-6-7-5-5-6--6--|

e|-------------------------|   
B|-------------------------|   
G|--------------------8-8--|   
D|--7-5-5-6-6-7-5-5-6-8-8--|
A|--7-5-5-6-6-7-5-5-6-6-6--|
D|--7-5-5-6-6-7-5-5-6------|


INTRO x2

VERSE x2

INTRO x2


BRIDGE x2

e|------------------------|   
B|------------------------|   x3
G|------------------------|   
D|--7-5-5-6-6-7-5-5-6--6--|
A|--7-5-5-6-6-7-5-5-6--6--|
D|--7-5-5-6-6-7-5-5-6--6--|

e|--------------------------|   
B|--------------------------|   
G|-----------------------9--|   
D|--7-5-5-6-6-7-5-5-6--6-x--|
A|--7-5-5-6-6-7-5-5-6--6-7--|
D|--7-5-5-6-6-7-5-5-6--6----|


INTRO x2


BRIDGE 2 

e|-------|         |-------|  
B|-------|   x14   |-------|   
G|--5-7--|         |--5/8--|  
D|--5-7--|         |--5/8--|  
A|--3-5--|         |--3/6--|  
D|-------|         |-------|  


This part is very hard to hear, but this should
give you a start, this sounds right to me though.

e|---------------------------------------------------^18r/--|
B|----------------------------------------------------------|   
G|--7----------7---------------4----------------------------|
D|--7-0-5p3-0--7-0-5p3-0---0-7---------0-7-0-7--------------|
A|--5-0-5p3-0--5-0-5p3-0----------~0~-----------~7~\--------|
D|----0-5p3-0----0-5p3-0------------------------------------|
[ Tab from: http://www.guitaretab.com/g/grinspoon/83406.html ]
e|--------------------------------------------------------|
B|---------------------------------------------------^20--|   
G|--7----------7---------------4------4-------------------|
D|--7-0-5p3-0--7-0-5p3-0---0-7---0-7----------------------|
A|--5-0-5p3-0--5-0-5p3-0-----------~0~------~5~\----------|
D|----0-5p3-0----0-5p3-0----------------------------------|

e|------------------------------------------------------^21--|
B|-----------------------------------------------------------|   
G|--7----------7---------------4-----------------------------|
D|--7-0-5p3-0--7-0-5p3-0---0-7-------------------------------|
A|--5-0-5p3-0--5-0-5p3-0----------~0~-~0~-~5~-~5~-0h5\-------|
D|----0-5p3-0----0-5p3-0-------------------------------------|

e|-------------------------------------14-16-14-x16-14x16x14-xx16--|
B|-----------------------------------------------------------------|   
G|--7----------7---------------------------------------------------|
D|--7-0-5p3-0--7-0-5p3-0---0-7-------------------------------------|
A|--5-0-5p3-0--5-0-5p3-0----------~0~------------------------------|
D|----0-5p3-0----0-5p3-0-------------------------------------------|

e|----------------------------------14-16-14-x16----14x16----x14-xx16--|
B|---------------------------------------------------------------------|   
G|--7----------7-------------------------------------------------------|
D|--7-0-5p3-0--7-0-5p3-0--------~12~-----------9/-~12~--9/~12~---------|
A|--5-0-5p3-0--5-0-5p3-0-----------------------------------------------|
D|----0-5p3-0----0-5p3-0-----------------------------------------------|

e|---------------------------------------------------------------------|
B|---------------------------------------------------------------------|   
G|--7----------7-------------------------------------------------------|
D|--7-0-5p3-0--7-0-5p3-0------12\~0~/~12~xx~12~-----12\~0~/~12~xx~12~--|
A|--5-0-5p3-0--5-0-5p3-0-----------------------------------------------|
D|----0-5p3-0----0-5p3-0-----------------------------------------------|

e|------------------------------------------------------------|
B|------------------------------------------------------------|   
G|--7----------7----------------------------------------------|
D|--7-0-5p3-0--7-0-5p3-0------~17~~\15-~17~~-~17~~\15-~17~~\--|
A|--5-0-5p3-0--5-0-5p3-0--------------------------------------|
D|----0-5p3-0----0-5p3-0--------------------------------------|



Fade This Riff Out for The Outro + Heavy Feedback

e|------------------------|
B|------------------------|   
G|--7----------7----------|
D|--7-0-5p3-0--7-0-5p3-0--|
A|--5-0-5p3-0--5-0-5p3-0--|
D|----0-5p3-0----0-5p3-0--|
Related for Pressure Tested tab