Song name
# A B C D E F G H I J K L M N O P Q R S T U V W X Y Z

Gris - Where So Many Tombs Were Forgotten tab

Gris - Where so many tombs were forgotten

Hopefully the tab isnt too long, the song is nearly 10 minutes though
***Ive included the synth part at the bottom of the tab***

Standard tuning EADGBe

INTRO RIFF 1X
|-----------LET-OPEN-E-SRTING-RING-THROUGH-OUT----------------------------|
|-------------------------------------------------------------------------|
|-------------------------------------------------------------------------|
|--------(5)-4~~~-------/5-4~~~~~~-----/5-4~~~~~--------5-/7~~~~----------|
|----2-------------2----------------2-------------------------------------|
|----0-------------0----------------0---------------0---------------------|

VERSE RIFF 0:17 2X
|-------------------------------------------------------------------------|
|-------------------------------------------------------------------------|
|-------------------------------------------------------------------------|
|---5--5--5--5--5---4--4--4--4--4------5--5--5--5--5---4--4--4--4--4------|
|---5--5--5--5--5---4--4--4--4--4------5--5--5--5--5---4--4--4--4--4------|
|---3--3--3--3--3---2--2--2--2--2------3--3--3--3--3---2--2--2--2--2------|
CTND 0:48 1X
|-------------------------------------------------------------------------|
|-------------------------------------------------------------------------|
|-------------------------------------------------------------------------|
|---9--9--9--9--9---8--8--8--8--8------9--9--9--9--9---8--8--8--8--8------|
|---9--9--9--9--9---8--8--8--8--8------9--9--9--9--9---8--8--8--8--8------|
|---7--7--7--7--7---6--6--6--6--6------7--7--7--7--7---6--6--6--6--6------|


2ND VERSE RIFF 1:03 2X
|-------------------------------------------------------------------------|
|-------------------------------------------------------------------------|
|-------------------------------------------------------------------------|
|---5--5--5--5--5---4--4--4--4--4------5--5--5--5--5---4--4--4--4--4------|
|---5--5--5--5--5---4--4--4--4--4------5--5--5--5--5---4--4--4--4--4------|
|---3--3--3--3--3---2--2--2--2--2------3--3--3--3--3---2--2--2--2--2------|
CTND 1:18  1x
|-------------------------------------------------------------------------|
|-------------------------------------------------------------------------|
|-------------------------------------------------------------------------|
|---9--9--9--9--9---8--8--8--8--8------9--9--9--9--9---8--8--8--8--8------|
|---9--9--9--9--9---8--8--8--8--8------9--9--9--9--9---8--8--8--8--8------|
|---7--7--7--7--7---6--6--6--6--6------7--7--7--7--7---6--6--6--6--6------|


Chorus 1:33  3x
|-------------------------------------------------------------------------|
|-------------------------------------------------------------------------|
|--------8--8--8--8------------------8--8--8--8-/10-10--------------------|
|--------8--8--8--8---5--5--5--5-----8--8--8--8-/10-10--5--5--5--5--------|
|--------6--6--6--6---5--5--5--5-----6--6--6--6-/8--8---5--5--5--5--------|
|---------------------3--3--3--3------------------------3--3--3--3--------|

2:17  2x
|-------------------------------------------------------------------------|
|-------------------------------------------------------------------------|
|-------------------------------------------------------------------------|
|---5--5--5--5--5---4--4--4--4--4------5--5--5--5--5---4--4--4--4--4------|
|---5--5--5--5--5---4--4--4--4--4------5--5--5--5--5---4--4--4--4--4------|
|---3--3--3--3--3---2--2--2--2--2------3--3--3--3--3---2--2--2--2--2------|
2:47  1x
|-------------------------------------------------------------------------|
|-------------------------------------------------------------------------|
|-------------------------------------------------------------------------|
|---9--9--9--9--9---8--8--8--8--8------9--9--9--9--9---8--8--8--8--8------|
|---9--9--9--9--9---8--8--8--8--8------9--9--9--9--9---8--8--8--8--8------|
|---7--7--7--7--7---6--6--6--6--6------7--7--7--7--7---6--6--6--6--6------|

3:02 1x
|-------------------------------------------------------------------------|
|-------------------------------------------------------------------------|
|-------------------------------------------------------------------------|
|---5--5--5--5--5---4--4--4--4--4------5--5--5--5--5---4--4--4--4--4------|
|---5--5--5--5--5---4--4--4--4--4------5--5--5--5--5---4--4--4--4--4------|
|---3--3--3--3--3---2--2--2--2--2------3--3--3--3--3---2--2--2--2--2------|
3:17  1x
|-------------------------------------------------------------------------|
|-------------------------------------------------------------------------|
|-------------------------------------------------------------------------|
|---9--9--9--9--9---8--8--8--8--8------9--9--9--9--9---8--8--8--8--8------|
|---9--9--9--9--9---8--8--8--8--8------9--9--9--9--9---8--8--8--8--8------|
|---7--7--7--7--7---6--6--6--6--6------7--7--7--7--7---6--6--6--6--6------|

3:31  3x
|-------------------------------------------------------------------------|
|-------------------------------------------------------------------------|
|----------8--8--8--8-----------------8--8--8--8-/10-10-------------------|
|----------8--8--8--8--5--5--5--5-----8--8--8--8-/10-10--5--5--5--5-------|
|----------6--6--6--6--5--5--5--5-----6--6--6--6-/8--8---5--5--5--5-------|
|----------------------3--3--3--3------------------------3--3--3--3-------|
LAST TIME 4:11
|-------------------------------------------------------------------------|
|-------------------------------------------------------------------------|
|--HOLD-------------------------------------------------------------------|
|---5---------------------------------------------------------------------|
|---5---------------------------------------------------------------------|
|---3---------------------------------------------------------------------|


break 4:15  4X
|---LET-NOTES-RING-TOGETHER-----------------------------------------------|
|----------0----------------0------------------0-----------------0--------|
|-------------------------------------------------------------------------|
|------7-----7---7------7-----7---7--------6-----6---6-------6-----6---6--|
|----7---7-----7------7---7-----7--------6---6-----6-------6---6-----6----|
|--5----------------5------------------4-----------------4----------------|

CTND VARIATION 4:42  4X
|-------------------------------------------------------------------------|
|-------------------------------------------------------------------------|
|----------5--------------------------------------------------------------|
|------7-----7---7-------5---------2--------------------------------------|
|----7---7-----7-------5---5-----2---2------------------------------------|
|--5-----------------3---------0------------------------------------------|


riff after break 4:56  2X
|-------------------------------------------------------------------------|
|-------------------------------------------------------------------------|
|-------------------------------------------------------------------------|
|--9---9----5---5-----9---9---5---5------8---8---4---4---8---8---4---4----|
|--9---9----5---5-----9---9---5---5------8---8---4---4---8---8---4---4----|
|--7---7----3---3-----7---7---3---3------6---6---2---2---6---6---2---2----|

5:51  1X
|-------------------------------------------------------------------------|
|-------------------------------------------------------------------------|
|-------------------------------------------------------------------------|
|---5--5--5--5--5---4--4--4--4--4------5--5--5--5--5---4--4--4--4--4------|
|---5--5--5--5--5---4--4--4--4--4------5--5--5--5--5---4--4--4--4--4------|
|---3--3--3--3--3---2--2--2--2--2------3--3--3--3--3---2--2--2--2--2------|
6:05  1X
|-------------------------------------------------------------------------|
|-------------------------------------------------------------------------|
|-------------------------------------------------------------------------|
|---9--9--9--9--9---8--8--8--8--8------9--9--9--9--9---8--8--8--8--8------|
|---9--9--9--9--9---8--8--8--8--8------9--9--9--9--9---8--8--8--8--8------|
|---7--7--7--7--7---6--6--6--6--6------7--7--7--7--7---6--6--6--6--6------|

6:19  1X
|-------------------------------------------------------------------------|
|-------------------------------------------------------------------------|
|-------------------------------------------------------------------------|
|---5--5--5--5--5---4--4--4--4--4------5--5--5--5--5---4--4--4--4--4------|
|---5--5--5--5--5---4--4--4--4--4------5--5--5--5--5---4--4--4--4--4------|
|---3--3--3--3--3---2--2--2--2--2------3--3--3--3--3---2--2--2--2--2------|
6:33  1X
|-------------------------------------------------------------------------|
|-------------------------------------------------------------------------|
|-------------------------------------------------------------------------|
|---9--9--9--9--9---8--8--8--8--8------9--9--9--9--9---8--8--8--8--8------|
|---9--9--9--9--9---8--8--8--8--8------9--9--9--9--9---8--8--8--8--8------|
|---7--7--7--7--7---6--6--6--6--6------7--7--7--7--7---6--6--6--6--6------|

6:47  2X
|-------------------------------------------------------------------------|
|-------------------------------------------------------------------------|
|-------------------------------------------------------------------------|
|---5--5--5--5--5---4--4--4--4--4------5--5--5--5--5---4--4--4--4--4------|
|---5--5--5--5--5---4--4--4--4--4------5--5--5--5--5---4--4--4--4--4------|
|---3--3--3--3--3---2--2--2--2--2------3--3--3--3--3---2--2--2--2--2------|

new riff 7:15  4X
|---------LET-NOTES-RING-TOGETHER-----------------------------------------|
|-------------------------------------------------------------------------|
|----------3------3-------3------------3-------3------3-------------------|
|-------5------5------5------5/4---4-------4------4--------4/5------------|
|-------5------5------5------5/4---4-------4------4--------4/5------------|
|-------3------3------3------3/2---2-------2------2--------2/3------------|

7:42 (also is solo rythm)  3X
|-------------------------------------------------------------------------|
|-------------------------------------------------------------------------|
|----------8--8--8--8-----------------8--8--8--8-/10-10-------------------|
|----------8--8--8--8--5--5--5--5-----8--8--8--8-/10-10--5--5--5--5-------|
|----------6--6--6--6--5--5--5--5-----6--6--6--6-/8--8---5--5--5--5-------|
|----------------------3--3--3--3------------------------3--3--3--3-------|
8:21  1X
|-------------------------------------------------------------------------|
|-------------------------------------------------------------------------|
|--HOLD-------------------------------------------------------------------|
|---5---------------------------------------------------------------------|
|---5---------------------------------------------------------------------|
|---3---------------------------------------------------------------------|

1st solo 7:56
|-------------------------------------------------------------------------|
|-------------------------------------------------------------------------|
|---------------------------15p14-15h17p15p14-15~~~~~-17-15-14--17-15-14--|
|--17p15h17~~~-17\19-17\19------------------------------------------------|
|-------------------------------------------------------------------------|
|-------------------------------------------------------------------------|

|-------------------------------------------------------------------------|
|-------------------------------------------------------------------------|
|-14h15--------------------14-14~~~~--------------------------------------|
|---------15h17-17~~~--17------------/13---12-12~~~~~~~~~~~~~-------------|
|-------------------------------------------------------------------------|
|-------------------------------------------------------------------------|

ctnd variation 8:10
|-------------------------------------------------------------------------|
|-------------------------------------------------------------------------|
|-------------------------14h15-14h15-17p15p14~~~~--17-15-14---17-15-14---|
|-17p15h17~~~-17\19-19/17-------------------------------------------------|
|-------------------------------------------------------------------------|
|-------------------------------------------------------------------------|

|-------------------------------------------------------------------------|
|-------------------------------------------------------------------------|
|-14h15-------------------14-14~~~~---------------------------------------|
|--------15h17-17~~~--17------------/13---12-12~~~~~~~~~~-----------------|
|-------------------------------------------------------------------------|
|-------------------------------------------------------------------------|



2nd solo  8:24 
|-------------------------------------------------------------------------|
|---19b21---19b21---19b21r19~~~-19b21~~~~~~~------------------------------|
|-------------------------------------------------------------------------|
|-------------------------------------------------------------------------|
|-------------------------------------------------------------------------|
|-------------------------------------------------------------------------|

rythm 8:24 3X
|-------------------------------------------------------------------------|
|-------------------------------------------------------------------------|
|-------------------------------------------------------------------------|
|--9---9----5---5-----9---9---5---5------8---8---4---4---8---8---4---4----|
|--9---9----5---5-----9---9---5---5------8---8---4---4---8---8---4---4----|
|--7---7----3---3-----7---7---3---3------6---6---2---2---6---6---2---2----|
END OF DISTORTION 1X
|-------------------------------------------------------------------------|
|-------------------------------------------------------------------------|
|----HOLD-----------------------------------------------------------------|
|-----8-------------------------------------------------------------------|
|-----8-------------------------------------------------------------------|
|-----6-------------------------------------------------------------------|

 9:26  1X
|-------CLEAN-GUITAR-AT-END-------ALL-NOTES-RING-TOGETHER-----------------|
|----------0----------------0------------------0-----------------0--------|
|-------------------------------------------------------------------------|
|------7-----7---7------7-----7---7--------6-----6---6-------6-----6---6--|
|----7---7-----7------7---7-----7--------6---6-----6-------6---6-----6----|
|--5----------------5------------------4-----------------4----------------|
ctnd   1X
|----------------------------------ALL-NOTES-RING-TOGETHER----------------|
|----------0----------------0-----------------0----------------0----------|
|-----------------------------------------------------------------0-------|
|------7-----7---7------7-----7---7-------6-----6---6------6---------6----|
|----7---7-----7------7---7-----7-------6---6-----6------6---6------------|
|--5----------------5-----------------4----------------4------------------|





synth part if youre interested  (same barre chord shape one octave up)
KEYBOARD PART 1
|-------------------10--------------------------10------------------------|
|-------------------------------------------------------------------------|
|-------------12-------12----12-----------12-------12----12---------------|
|----------12----12-------12-----------12----12-------12------------------|
|-------10--------------------------10------------------------------------|
|-------------------------------------------------------------------------|
KEYBOARD PART 1 CTND
|-----------------9---------------------------9---------------------------|
|-------------------------------------------------------------------------|
|-----------11-------11----11-----------11-------11----11-----------------|
|--------11----11-------11-----------11----11-------11--------------------|
|------9---------------------------9--------------------------------------|
|-------------------------------------------------------------------------|
ABOVE KEYBOARD PART GOES OVERTOP OF THIS RIFF
|-------------------------------------------------------------------------|
|-----KEYBOARD-PART-1-RYTHM-----------------------------------------------|
|-------------------------------------------------------------------------|
|---5--5--5--5--5---4--4--4--4--4------5--5--5--5--5---4--4--4--4--4------|
|---5--5--5--5--5---4--4--4--4--4------5--5--5--5--5---4--4--4--4--4------|
|---3--3--3--3--3---2--2--2--2--2------3--3--3--3--3---2--2--2--2--2------|


KEYBOARD PART 2
|-------------------10-------------------------10-------------------------|
|-------------12-------12----12----------12-------12----12----------------|
|----------11----11-------11----------11----11-------11-------------------|
|--------9--------------------------9-------------------------------------|
|-------------------------------------------------------------------------|
|-------------------------------------------------------------------------|
KEYBOARD PART 2 CTND
|-------------------9-------------------------9---------------------------|
|-------------11------11----11----------11------11----11------------------|
|----------10----10------10----------10----10------10---------------------|
|--------8-------------------------8--------------------------------------|
|-------------------------------------------------------------------------|
|-------------------------------------------------------------------------|
THE ABOVE KEYBOARD PART GOES OVERTOP OF THIS RIFF
|-------------------------------------------------------------------------|
|--KEYBOARD-PART-2-RYTHM--------------------------------------------------|
|-------------------------------------------------------------------------|
|---9--9--9--9--9---8--8--8--8--8------9--9--9--9--9---8--8--8--8--8------|
|---9--9--9--9--9---8--8--8--8--8------9--9--9--9--9---8--8--8--8--8------|
|---7--7--7--7--7---6--6--6--6--6------7--7--7--7--7---6--6--6--6--6------|
Tap to rate this tab
 
# A B C D E F G H I J K L M N O P Q R S T U V W X Y Z