Song name
# A B C D E F G H I J K L M N O P Q R S T U V W X Y Z

Grisen Skriker - Ett Tusen Punks tab

Grisen skriker - Ett tusen punks
Hemsida: http://www.silence.se/artister/grisenskriker.htm

Vers

e|--------------------------------------------|
B|--------------------------------------------|
G|-7-7-7-7--5-5-5-5--12-12-12-12--7-7-7-7-----|
D|-7-7-7-7--5-5-5-5--12-12-12-12--7-7-7-7-----|
A|-5-5-5-5--3-3-3-3--10-10-10-10--5-5-5-5-----|
E|--------------------------------------------|


Bridge

e-------------------|
B-------------------|
G-------------------|
D-7-7-7-7--5-5-5-5--|
A-7-7-7-7--5-5-5-5--|
E-5-5-5-5--3-3-3-3--|


Refräng

e---------------------|
B---------------------|
G-7-7-7-7-------------|
D-7-7-7-7--7-7-7-7----|
A-5-5-5-5--7-7-7-7----|
E----------5-5-5-5----|


Och i slutet av refrängen

e-----------------------|
B-----------------------|
G-7-x-x-x-7-------------|
D-7-x-x-x-7--5-5--7-7---|
A-5-x-x-x-5--5-5--7-7---|
E------------3-3--5-5---|

Jaja hoppas det var hyffsat rätt. Ni får säga till om det var en riktig TABBE Hohohoho
Davidfornborg@gmail.com
Tap to rate this tab
# A B C D E F G H I J K L M N O P Q R S T U V W X Y Z