Song name
# A B C D E F G H I J K L M N O P Q R S T U V W X Y Z

Grits - They All Fall Down tab

Song: They All Fall Down
Artist: Grits
Album: Grammatical Revolution
Gotee Records

Here are the intro and verse riffs:

Intro
|-----------0-----0h1p0-----------0-|-1-0h1p0-------------------------------|
|-----0-1-3-------------3-1-0-1-3---|---------3-1h3p1-0---0-1-0-------------|
|---2-------------------------------|-------------------2-------2-1h2-1h2p1-|
|-2---------------------------------|---------------------------------------|
|-----------------------------------|---------------------------------------|
|-----------------------------------|---------------------------------------|

|---------------------------------|-------4---4-5-7-7--7-7-7-8-10-|
|---------------------------------|-------------------------------|
|-----1---1-------2---1---1-------|-1/2/4---4---------------------|
|---0-------0---0---------------0-|-------------------------------|
|-------------2-----2-------2-----|-------------------------------|
|-0-----0---------------0-----0---|-------------------------------|


|-8-7-5-7----------------7-8-10-8-7h8p7----|----------0---------------------|
|----------13-12p10-9-10----------------10-|-9-10-------3-1h3p1p0h1p0-------|
|-----------x------------------------------|--------------------------2p1-2-|
|------------------------------------------|--------------------------------|
|------------------------------------------|--------------------------------|
|------------------------------------------|--------------------------------|

|-----------------|----------------0----|
|-----------------|---------------1-----|
|---0-------------|--------------2------|
|-------3---2-0---|-------------2-------|
|-0---0---0-----3-|-2h3p2---2--0--------|
|-----------------|-------4-------------|
Tap to rate this tab
# A B C D E F G H I J K L M N O P Q R S T U V W X Y Z