Guitaretab - guitar tabs
Song name
# A B C D E F G H I J K L M N O P Q R S T U V W X Y Z

Grizzly Bear - All We Ask tab

-----------------------------------------------------------------
ALL WE ASK - GRIZZLY BEAR
-----------------------------------------------------------------
Tabbed by Ben Chen
June 14, 2009

Beautiful song. Unfortunately have never seen them live :( but I 
put this together based on the Black Cab Sessions video and what 
I could glean from the LP. You'll have to figure out some of the
strumming from just listening.

Go easy on me. I've only done a few tabs.
Have fun!


Tuning: Drop D (DADGBe)


========== INTRO ======================================
							  
e|-------------------------------------------------------| 
B|--9-9-9-9-8-8-8-8-6-6-6-6-8-8-8-8\3/4\1-1-1-1-1-1-1-1/-| 
G|--7-7-7-7-7-7-7-7-7-7-7-7-7-7-7-7\---------------------| 
D|---0-0-0-0-0-0-0-0-0-0-0-0-0-0-0-------1-1-1-1-1-1-1---| 
A|-------------------------------------------------------| 
D|--8-8-8-8-8-8-8-8-8-8-8-8-8-8-8-8-----1-1-1-1-1-1-1-1/-| 
							   
e|-----------------------------------------------------|
B|-/6-6-6-6-6-6-6-6-4-4-4-4-4-4-4-4-6-6-6-6-6-6-6-6----|
G|-----------------------------------------------------|
D|---6-6-6-6-6-6-6-6-5-5-5-5-5-5-5-5-6-6-6-6-6-6-6-6---|
A|-----------------------------------------------------|
D|-/6-6-6-6-6-6-6-6-5-5-5-5-5-5-5-5-6-6-6-6-6-6-6-6----|

(repeat these 2 bars)

e|--------------------------8---8----|   
B|--9-9-9-9-8-8-8-8-6-6-6-6---6---6--|   
G|-----------------------------------|   
D|---0-0-0-0-0-0-0-0-0-0-0-0-0-0-0---|   
A|-----------------------------------|   
D|--8-8-8-8-8-8-8-8-8-8-8-8-8-8-8-8--|

(then repeat this bar)

=======================================================


e|--------------------------------------|
B|--------------------------------------|
G|-------0--------0--------0--------0---|
D|-----8---8----8---8----8---8----8---8-|
A|--------------------------------------|
D|--10-------10-------10-------10-------|
	
	In this old house


e|----------------------------------------|
B|----------------------------------------|
G|----------------------------------------|
D|------0-------0-------0-----------------|
A|----8---8---8---8---8---8---8-----------|
D|--8-------8-------8-------8---/10-8-10\-|
	
	I'm not alone


e|--3--|
B|--1--|
G|--0--|
D|--1--|
A|--1--|
D|--1--|

	In a bedroom


e|----------------------------------|
B|----------------------------------|
G|----------------------------------|
D|------0-------0-------0-------0---|
A|----8---8---8---8---8---8---8---8-|
D|--8-------8-------8-------8-------|

	a telephone


e|--8--|
B|--8--|
G|--8--|
D|--8--|
A|--10-|
D|--8--|

	You made the call and I just


e|--1---1--1-1--|
B|--1---4--3-1--|
G|--1---1--1-1--|
D|--3---3--3-3--|
A|--x-----------|
D|--3-----------|

	stood by


e|--8--|
B|--8--|
G|--8--|
D|--8--|
A|--10-|
D|--8--|

	I stripped the sheets and emptied out


e|--7--7--7--7-7-7--7--7--7-7-7--7--7--7-7-7--7--7--7--|
B|--7--7--7--7-7-7--7--7--7-7-7--7--7--7-7-7--7--7--7--|
G|--7--7--7--7-7-7--7--7--7-7-7--7--7--7-7-7--7--7--7--|
D|--7--7--7--7-7-7--7--7--7-7-7--7--7--7-7-7--7--9--7--|
A|--9--9--9--9-7-9--9--9--9-7-9--9--9--9-7-9--7--7--9--|
D|--7--7--7--7-7-7--7--7--7-7-7--7--7--7-7-7--7--7--7--|

	the sty



========== CHORUS =====================================
[ Tab from: http://www.guitaretab.com/g/grizzly-bear/188806.html ]
e|--x--|
B|--9--|
G|--7--|
D|--0--|
A|--x--|
D|--8--|

	And the crowds, they like the carnival


e|--3------------------------|
B|--1------------------------|
G|--0-------5-5-5-5-5-5-5-5--|
D|--1-------x-x-x-x-x-x-x-x--|
A|--1-------6-6-7-7-8-8-6-6--|
D|--1-------6-6-6-6-6-6-6-6--|

	calling us home


e|--3------------------------|
B|--4------------------------|
G|--3-------5-5-5-5-5-5-5-5--|
D|--5-------x-x-x-x-x-x-x-x--|
A|--x-------6-6-7-7-8-8-6-6--|
D|--5-------6-6-6-6-6-6-6-6--|

	calling us home


e|--x--|
B|--9--|
G|--7--|
D|--0--|
A|--x--|
D|--8--|

	And all we want, Another Voice


e|--3------------------------|
B|--1------------------------|
G|--0-------5-5-5-5-5-5-5-5--|
D|--1-------x-x-x-x-x-x-x-x--|
A|--1-------6-6-7-7-8-8-6-6--|
D|--1-------6-6-6-6-6-6-6-6--|

	To lead us along


e|--3------------------------|
B|--4------------------------|
G|--3-------5-5-5-5-5-5-5-5--|
D|--5-------x-x-x-x-x-x-x-x--|
A|--x-------6-6-7-7-8-8-6-6--|
D|--5-------6-6-6-6-6-6-6-6--|

	Lead us along


e|--x-------x-------x-----8---------x-------x-------x-----8---------|
B|--9-------8-------6-----6---------9-------8-------6-----6---------|
G|--7-------7-------7-----7---------7-------7-------7-----7---------|
D|--0-------0-------0-----0---------0-------0-------0-----0---------|
A|--x-------x-------x-----x---------x-------x-------x-----x---------|
D|--8-------8-------8-----8---------8-------8-------8-----8---------|

	Lead us along

=======================================================



e|--3--|		e|--x--|
B|--1--|		B|--9--|
G|--0--|		G|--7--|
D|--1--|		D|--0--|
A|--1--|		A|--8--|
D|--1--|		D|--8--|

	Even wasting		the time with you

	Doesn't matter		if I think it through


e|--8--|
B|--8--|
G|--8--|
D|--8--|
A|--10-|
D|--8--|

	You took the car around and on


e|--1---1--1-1--|
B|--1---4--3-1--|
G|--1---1--1-1--|
D|--3---3--3-3--|
A|--x-----------|
D|--3-----------|

	the bend


e|--8--|
B|--8--|
G|--8--|
D|--8--|
A|--10-|
D|--8--|

	Ran it in the ground


e|--7--7--7--7-7-7--7--7--7-7-7--7--7--7-7-7--7--7--7--|
B|--7--7--7--7-7-7--7--7--7-7-7--7--7--7-7-7--7--7--7--|
G|--7--7--7--7-7-7--7--7--7-7-7--7--7--7-7-7--7--7--7--|
D|--7--7--7--7-7-7--7--7--7-7-7--7--7--7-7-7--7--9--7--|
A|--9--9--9--9-7-9--9--9--9-7-9--9--9--9-7-9--7--7--9--|
D|--7--7--7--7-7-7--7--7--7-7-7--7--7--7-7-7--7--7--7--|

	letís pretend


(Repeat Chorus) 

And the crowds, they like the carnival
calling us home
calling us home

And all we ask
Another voice
Lead us along
Lead us along
Lead us along


========== OUTRO ======================================

e|--3-------------------------------3-------------------------------3--|
B|--1-------------------------------4-------------------------------1--|
G|--0----------5-5-5-5-5-5-5-5------3--------------5-5-5-5-5-5-5-5--0--|
D|--1----------x-x-x-x-x-x-x-x------5--------------x-x-x-x-x-x-x-x--1--|
A|--1----------6-6-7-7-8-8-6-6------x--------------6-6-7-7-8-8-6-6--1--|
D|--1----------6-6-6-6-6-6-6-6------5--------------6-6-6-6-6-6-6-6--1--|

  I can't, get out,     of what I'm in - to with you           I    can't...

(x4)

=======================================================

| /  slide up
| \  slide down
| h  hammer-on
| p  pull-off
| ~  vibrato
| +  harmonic
| x  Mute note
Related for All We Ask tab