Song name
# A B C D E F G H I J K L M N O P Q R S T U V W X Y Z

Grizzly Bear - Little Brother tab

this is the fast intro but there is either another guitar or a bass part added on
to this, but its fun to play.  great album great band

E|--5-----0-----5----------2-----0-----2----|
B|-----3-----3-----3----------1-----1-----1-|
G|--------------------4/2-------------------|
D|------------------------------------------|
A|------------------------------------------|
E|------------------------------------------|


E|-------4-----0-----4----------3-----0-----3----|
B|----------3-----3-----3----------2-----2-----2-|
G|--2/4--------------------4/3-------------------|
D|-----------------------------------------------|
A|-----------------------------------------------|
E|-----------------------------------------------|


E|-------2-----0-----2-----------2-----0-----2------|
B|----------3-----3-----3-----3-----3-----3-----3---|
G|--3/2--------------------2------------------------|
D|--------------------------------------------------|
A|--------------------------------------------------|
E|--------------------------------------------------|

E|--------2-----0-----2-----------2-----0-----2-----|
B|-----3-----3-----3-----3-----3-----3-----3-----3--|
G|--2-----------------------2-----------------------|
D|--------------------------------------------------|
A|--------------------------------------------------|
E|--------------------------------------------------|
Tap to rate this tab
# A B C D E F G H I J K L M N O P Q R S T U V W X Y Z