Song name
# A B C D E F G H I J K L M N O P Q R S T U V W X Y Z

Grizzly Bear - Slow Life tab

Song: Slow Life (w/ Victoria Legrand of Beach House)
Artist: Grizzly Bear
Album: New Moon OST

Tabbed by: ZLP

o = Open

Standard tuning, Capo on 1

VERSES:
      (F# Maj)        (F Min)         (G# Maj)        (A# Min)
e|--------------------|--------------------|--------------------|----------------------|
B|--------------------|--------------------|--------------------|----------------------|
G|--------------------|--------------------|--------------------|----------------------|
D|3---3---3---3---|2---2---2---2---|5---5---5---5---|7---7---7---7---------------------|
A|--------------------|--------------------|--------------------|----------------------|
E|--5---5---5---5-|--3---3---3---3-|--7---7---7---7-|--8---8---8---8-------------------|


CHORUSES:
    (C# Maj)      (B Maj)     (F# Maj)    (F Min) (F# Maj)
e|o---------------|1---------------|1---------------|o------------1-------------|
B|1---------------|3---------------|1---------------|o------------1-------------|
G|o---------------|3---------------|2---------------|o------------2-------------|
D|2---------------|3---------------|3---------------|2------------3-------------|
A|3---------------|1---------------|3---------------|2------------3-------------|
E|-----------------|-----------------|1---------------|o------------1-----------|

Listen to song for how many repetitions you need to play and when to switch chords.
Tap to rate this tab
# A B C D E F G H I J K L M N O P Q R S T U V W X Y Z