Song name
# A B C D E F G H I J K L M N O P Q R S T U V W X Y Z

Grizzly Bear - Deep Sea Diver tab

-----------------------------------------------------------------------------
			     DEEP SEA DIVER - Grizzly Bear
-----------------------------------------------------------------------------
Tabbed by: Morgan Brown
Email: theymightnotbegiants@hotmail.com

Tuning: Standard



e------------------|----------------|------------------|------------------|
B------------------|----------------|------------------|------------------|
G------------------|----------------|5--5--------------|5--5--------------|
E------------------|5---5--5--5--5--|3--3-----7--7-----|3--3-----7--7-----|
A--7---7--7--7--7--|3---3--3--3--3--|------0--5--5--0--|------0--5--5--0--|
E--5---5--5--5--5--|----------------|------------------|------------------|

e------------------|----------------|------------------|------------------|
B------------------|----------------|------------------|------------------|
G------------------|----------------|5--5--------------|5--5--------------|
D------------------|5---5--5--5--5--|3--3-----7--7-----|3--3-----7--7-----|
A--7---7--7--7--7--|3---3--3--3--3--|------0--5--5--0--|------0--5--5--0--|
E--5---5--5--5--5--|----------------|------------------|------------------|

Repeat (x3)



e------------------|----------------|------------------|------------------|
B------------------|----------------|------------------|------------------|
G------------------|----------------|------------------|------------------|
D------------------|5---5--5--5--5--|7--7-----5--5-----|7--7-----5--5-----|
A--5---5--5--5--5--|3---3--3--3--3--|5--5--0--3--3--0--|5--5--0--3--3--0--|
E--3---3--3--3--3--|----------------|------------------|------------------|

e------------------|----------------|------------------|------------------|
B------------------|----------------|------------------|------------------|
G------------------|----------------|------------------|------------------|
D------------------|5---5--5--5--5--|7--7-----5--5-----|7--7-----5--5-----|
A--5---5--5--5--5--|3---3--3--3--3--|5--5--0--3--3--0--|5--5--0--3--3--0--|
E--3---3--3--3--3--|----------------|------------------|------------------|

e------------------|------------------|------------------|------------------|
B------------------|------------------|------------------|------------------|
G------------------|------------------|------------------|------------------|
D--10--10-10--10---|10-10-10-10-10-10-|--10-10-10-10--7--|7--7---7--7--7--7-|
A--8---8--8---8----|8--8--8--8--8--8--|--8--8--8--8---5--|5--5---5--5--5--5-|
E------------------|------------------|------------------|------------------|

e------------------|-------------------|------------------|----------------|
B------------------|-------------------|------------------|----------------|
G------------------|-------------------|------------------|----------------|
D-7--7--7--7--7--7-|-7---10--10-10--10-|10-10-10-10-10/12-|-12--12--12---7-|
A-5--5--5--5--5--5-|-5---8---8--8---8--|8--8--8--8--8-/10-|-10--10--10-0-5-|
E------------------|-------------------|------------------|----------------|

e------------------|------------------|------------------|------------------|
B------------------|------------------|------------------|------------------|
G------------------|------------------|------------------|------------------|
D-7--7---7--7--7--7|--7--7--7--7--7--7|--7--10--10-10--10|-10-10-10-10-10-10|
A-5--5---5--5--5--5|--5--5--5--5--5--5|--5--8---8--8---8-|-8--8--8--8--8--8-|
E------------------|------------------|------------------|------------------|

e------------------|------------------|------------------|----------------|
B------------------|------------------|------------------|----------------|
G------------------|------------------|------------------|----------------|
D--10--10--10---7--|-7--7---7--7--7--7|--7--7--7--7--7--7|--7--10--10-10--|
A--8---8---8--0-5--|-5--5---5--5--5--5|--5--5--5--5--5--5|--5--8---8--8---|
E------------------|------------------|------------------|----------------|

e---------------------|-----------------|-----------------|--------------|
B---------------------|-----------------|-----------------|--------------|
G---------------------|-----------------|-----------------|--------------|
D-10-10-10-10-10-10/12|--12--12--12---7-|--7---7--7--7----|--------------|
A-8--8--8--8--8--8-/10|--10--10--10-0-5-|--5---5--5--5--10|--10--10-10-10|
E---------------------|-----------------|---------------8-|--8---8--8--8-|

e------------------|----------------|------------------|------------------|
B------------------|----------------|------------------|------------------|
G------------------|----------------|5--5--------------|5--5--------------|
E------------------|5---5--5--5--5--|3--3-----7--7-----|3--3-----7--7-----|
A--7---7--7--7--7--|3---3--3--3--3--|------0--5--5--0--|------0--5--5--0--|
E--5---5--5--5--5--|----------------|------------------|------------------|

e------------------|----------------|------------------|------------------|
B------------------|----------------|------------------|------------------|
G------------------|----------------|5--5--------------|5--5--------------|
D------------------|5---5--5--5--5--|3--3-----7--7-----|3--3-----7--7-----|
A--7---7--7--7--7--|3---3--3--3--3--|------0--5--5--0--|------0--5--5--0--|
E--5---5--5--5--5--|----------------|------------------|------------------|

(Repeat twice, third time the song cuts out)

A small lead that seems to play in the second half but gets drowned out:

e|------------------------------------------------------------------------|
B|------------------------------------------------------------------------|
G|------------------------------------------------------------------------|
D|-14--14-14--14-14-14-14--14-14--14-14-14-15--15-15--15-15-15-15--15-15--|
A|------------------------------------------------------------------------|
E|------------------------------------------------------------------------|

e|-----------|
B|-----------|
G|-----------|
D|-15-15-15--|
A|-----------|
E|-----------| (Repeat)

e|------------------------------------------------------------------------|
B|------------------------------------------------------------------------|
G|------------------------------------------------------------------------|
D|-14--14-14--14-14-14-14--14-14--14-14-14-12--12-12--12-12-12-12--12-12--|
A|------------------------------------------------------------------------|
E|------------------------------------------------------------------------|

e|-----------|
B|-----------|
G|-----------|
D|-12-12-12--|
A|-----------|
E|-----------| (Then it just gets drowned out by the noise)




Cmaj

e-----------------------|
B----1---1---1---1------|
G------0-------0---0----|
D--------------------2--|
A--3-------3-----------3|
E-----------------------| (This is repeated 13 times)


Tap to rate this tab
 
# A B C D E F G H I J K L M N O P Q R S T U V W X Y Z