Song name
# A B C D E F G H I J K L M N O P Q R S T U V W X Y Z

Grizzly Bear - Lullabye tab

GRIZZLY BEAR - LULLABYE
from yellow house


intro
[-----------------|
[6-----6----------|
[8-----8----------|
[8-----8----------|
[0--------------5-|
[--6-8---6-5-3----|

verse
[-------------------------------------------------------------|
[--6-6-----6-6---6-----6-6---6--6---6-6---6-6---6-6-----------|
[--8-8-----8-8---8-----8-8---8--8---7-7---7-7---7-7-----------|
[7-----5-8-----7---5------------------------------------------|
[--------------------8-----8------8-----8-----8-------------5-|
[---------------------------------------------------------3---|

[-------------------------------------------------------------|
[--6-6-----6-6---6-----6-6---6--6---6-6---6-6---6-6-----------|
[--8-8-----8-8---8-----8-8---8--8---7-7---7-7---7-7-----------|
[7-----5-8-----7---5------------------------------------------|
[--------------------8-----8------8-----8-----8---------------|
[-------------------------------------------------------------|

[13-15------10--13---------|
[11----10---11------8------|
[12----8----10------8------|
[------10---10------8------|
[------8----10------8------|
[--------------------------|

intro
[-----------------|
[6-----6----------|
[8-----8----------|
[8-----8----------|
[0--------------5-|
[--6-8---6-5-3----|

verse
[-------------------------------------------------------------|
[--6-6-----6-6---6-----6-6---6--6---6-6---6-6---6-6-----------|
[--8-8-----8-8---8-----8-8---8--8---7-7---7-7---7-7-----------|
[7-----5-8-----7---5------------------------------------------|
[--------------------8-----8------8-----8-----8---------------|
[-------------------------------------------------------------|

keep playing the last bit (Bbsus4/F to Bb/F)for a while
he adds in the high c note by putting his little finger on the E string on the 8th fret

.....

then play this chord 3 or 4 times

[-0-
[-1-
[-0-
[-3-
[-0-
[---

then this 3 or 4 times

[----------0-|
[----------1-|
[----------0-|
[----------3-|
[----------x-|
[----5-0-1-3-|

[----------------------------0-----|
[----------------------------1-----|
[----------------------------0-----|
[----------------------------3-----|
[----------------------------x-----|
[-1-0-5-3-6-5-8-6-10-8-5-0-1-3-----|

[-----------------------------0-----|
[-----------------------------1-----|
[-----------------------------0-----|
[-----------------------------3-----|
[-----------------------------x-----|
[-1-0-5-3-6-5-8-6-10-12-8-0-1-3-----|

repeat until end ....

tabbed by Kevin Gleeson :)
any comments or corrections welcome
long live the grizzly bear !!
Tap to rate this tab
 
# A B C D E F G H I J K L M N O P Q R S T U V W X Y Z