Song name
# A B C D E F G H I J K L M N O P Q R S T U V W X Y Z

Grizzly Bear - Little Brother tab

I'm not taking credit for someone else's hard work and talent, I just noticed that the 
version of this tab was missing from this site (and most other sites it was submitted 
So here is the FULL tab of the ELECTRIC version of 'Little Brother'.

Drop D tuning

Turn up the reverb


Section 1:
Intro:

e|-------------------------------------------------------------------|
B|---------7---7----5----------5---5--5-----3-----------7--8p7---5---|
G|-----------------------------3---3--3-----3------------------------|
D|---------7---7----7----\-----3---3--3-----3----/------7--7---------|
A|-------5-----5----5-------5--5---5--5--5--5--5--------5-----5------|
D|----0--------0----0----3-----3---3--3-----3------0----0------------|


e|----------(3)------------------------------------------------------|
B|---------5---5-3--5p3-5p3------------------------------------------|
G|---------3-----3--3---3--------------------------------------------|
D|---------3-----3---------------------------------------------------|
A|------5--5-----5--5------------------------------------------------|
D|---3-----3-----3------3--------------------------------------------|

Section 2:
Opening Verse:

e|----------------------------------------5-5--5---------------------|
B|---------x--x----------x7------- x5h7-x-7-7--5---------------------|
G|---------x--x---------------------------7-7-----0-*twang!----------|
D|-----------------------x7-------------x-7-7------------------------|
A|-------x--------------x5----x5---x5---x-5-5------------------------|
D|---x0----x--x---x0--------x0------------0-0------------------------|

          my  God  that's not  the  way...

e|----------x--x3--x3------------3--3--------------------------------|
B|----------x--x5-----x5--x5-----5--5p3--3---------------------------|
G|----------x--x3-----x3--x3-----3--3----5p3-------------------------|
D|----------x--x3-----x3--x3-----3--3----5---------------------------|
A|------x5--x--x5----------------5--5----5---------------------------|
D|---x3-----x--x3----------------3--3----3---------------------------|

          My  God that's not the way..

repeat one more time roughly a little different er whatever, then


e|--------1--0--------------------3------------------------------------|
B|--------3--3---3---2---3--0-----3------------------------------------|
G|--------3--3-------2------------4------------------------------------|
D|--------0--0-------0------------5---0--5-5--5--0-0-------------------|
A|------------------------------------x--x-x--x--x-x-------------------|
D|----3---3----3-----4--------5-------0--5-5--5--0-0---3---------------|

repeat one more time roughly along the same lines

Section 3:
Verse:

e|--------------------------------3----------------------------------|
B|----3----b--b-------2-----------3----------------------------------|
G|----3----l--l-------2-----------4----------------------------------|
D|----0----a--a-------0-----------5---0--5-5--5--0-0-----------------|
A|---------h--h-----------------------x--x-x--x--x-x-----------------|
D|----3---------------4-------5-------0--5-5--5--0-0---3-------------|

      Bright eyed and up in arms...


e|------------------------------------------3------------------------|
B|----3----b--b-----------------2-----------3------------------------|
G|----3----l--l-----------------2-----------4------------------------|
D|----0----a--a-----------------0-----------5---0--5-5--5--0-0-------|
A|---------h--h---------------------------------x--x-x--x--x-x-------|
D|----3-------------------------4-------5-------0--5-5--5--0-0---3---|
     my little brother was a solemn  one...

e|-------------------------------------------------------------------|
B|---3---------2-----------------------------------------------------|
G|---3---------2-------------------------------------------11--9--9--|
D|---0---------0-------------------------------2--2--4--5--x---x--x--|
A|---------------------------------------------x--x--x--x--9---7--7--|
D|---3---------4---(0h4-0h4)--2--0h2-0h2--2-2--2--2--4--5------------|

     He ALWAYS had his quiet...coooorrrnnnneeerrr


Section 4:

e|------------------12------------------12---------------------------|
B|------12----14----x-------12----14----x----------12---14-----------|
G|------x-----x-----9-------x-----x-----9----11p9--x----x------------|
D|------9-----11------------9-----11---------------9----11-----------|
A|-------------------------------------------------------------------|
D|--0---------0---------0---------0----------0----------0------------|

                                             ^
          repeat 3 times but leaving off the extra count on last one


e|-------------------------------------------------------------------|
B|-------------------------------------------------------------------|
G|-----------------------------------0-------------------------------|
D|-----------------------------------0-------------------------------|
A|-----------------------------------x-------------------------------|
D|-(mute)--12---11---9---7---0---4---7---3---------------------------|
                                         ^
                                         Back to verse
Pride of my countrymen
my little brother will be born again
Just give us back our quiet corner


Section 4 again leading into bridge:

e|------------------12------------------12---------------------------|
B|------12----14----x-------12----14----x----------12---14-----------|
G|------x-----x-----9-------x-----x-----9----11p9--x----x------------|
D|------9-----11------------9-----11---------------9----11-----------|
A|-------------------------------------------------------------------|
D|--0---------0---------0---------0----------0----------0------------|

e|------------------12------------------12-----------------17-17-17--|
B|------12----14----x-------12----14----x----------12---14-x--x--x---|
G|------x-----x-----9-------x-----x-----9----11p9--x----x--14-14-14--|
D|------9-----11------------9-----11---------------9----11-----------|
A|-------------------------------------------------------------------|
D|--0---------0---------0---------0----------0----------0------------|

e|------------------12------------------12---------------------------|
B|------12----14----x-------12----14----x---------------------9---12-|
G|------x-----x-----9-------x-----x-----9------------9-----9------9--|
D|------9-----11------------9-----11---------9---11-----11-----------|
A|------------------------------------------------------0--0---------|
D|--0---------0---------0---------0----------0-----------------------|


Section 5:
Bridge:

e|-------9----------9----------9---9----7-------9--------12----------|
B|-------10---------10---------9---9----9-------10-------10----------|
G|-------11---------11---------9---9----9-------11-------11----------|
D|-------------------------------------------------------------------|
A|----------0----------0------------------0--------0--------0--------|
D|--0--0------0--0-------0--0----0----------0--0-----0--0-----0--0---|

  lightly mute the D and A  strings as you do the walking bassline
  during the bridge


e|--9--9---7-------9-------9--------9--------8--------7--------7-----|
B|--9--9---9-------10------10-------9--------9--------8--------8-----|
G|--9--9---9-------11------11-------7--------7--------9--------9-----|
D|-------------------------------------------------------------------|
A|----------0--------0-------0--------0--------0--------0------------|
D|---0--------0--0-----0--0----0--0-----0--0-----0--0-----0--0-------|

                wooooooooooooooooooooooooooooooo...


e|---------7---7------------7--------6----5-------(9)----------------|
B|---------7---7------------6--------6----6----9--------9--10p9-8\5--|
G|---------8---8------------7--------7----7----7--------7------------|
D|-------------------------------------------------------------------|
A|-0----------------0---------0--------0-----------------------------|
D|---0--0----0--------0--0------0--0-----0--0----0----0--0-----------|

e|--------------------------------------------------5----------------|
B|--7----7--------7--------7--7--5---------7--------7-------7--7--5--|
G|--7----7--------7--------6--6--6---------7--------7-------6--6--6--|
D|--0----0--------0--------0--0--0---------0--------0-------0--0--0--|
A|---------0--------0---------------0--------0--------0--------------|
D|--0--0-----0--0-----0--0--0---------0--0-----0--0-----0--0--0------|

     Ahhhhhhhhhhhhhhhhhhhhhhhhhhhhhhhhhhhhh..

e|-------------------------------------------------------------7-----|
B|--5---5--5---5------------------7----7--------x7-----(6)------7----|
G|--5---5--5---5-------------9-9--9p7--9--------x7------7-------7----|
D|---------5---5--------7-7--7-7--7----7-----------------------------|
A|---------------------------7-7--7----7----------0------------------|
D|--5---5--5---5--6--7--7-7--7-7--7----7---0--0-----0--0---0--0---0--|


e|-----------------------------------------------------------12------|
B|--5---5--5---5----------------------------------12----14---x-------|
G|--5---5--5---5----------------------------------x-----x----9-------|
D|---------5---5--------7-7--7-7--7--7-7----------9-----11-----------|
A|---------------------------7-7--7----7-----------------------------|
D|--5---5--5---5--6--7--7-7--7-7--7--7-7------0---------0------------|

Back into Section 4
then the end is similar to Section 2, opening Verse

Well done to whoever tabbed this btw, you're awesome
Tap to rate this tab
 
# A B C D E F G H I J K L M N O P Q R S T U V W X Y Z