Song name
# A B C D E F G H I J K L M N O P Q R S T U V W X Y Z

Grizzly Bear - Central And Remote tab

-------------------------------------------------------------------------------
                             Central and Remote - Grizzly Bear
-------------------------------------------------------------------------------
Tabbed by: MJOHNSON1915
E-mail: mjohnson1915@gmail.com

Tuning: Standard

6/8 Time

The predominant rhythm: |1-2-x-2-1-2|

INTRO | VERSE ("In the wind..."/"Remind...")

e|-0--0--0--x--x--x-------x-x-x-0-|-----x-x-x-x-|
B|-0--0--0--6--6--6-------0-3-3-0-|-----0-0-0-0-|
G|-2--2--2--6--6--5-------2-2-2-2-|-----0-0-0-0-|
D|-x--2--4--7--7--7-------3-3-3-3-|-2-0-2-2-4-2-|
A|-3--3--3--5--4--3--2-0--x-x-x-5-|-----3-0-5-2-|
E|-x--x--x--x--x--x-----3-1-1-0-x-|-----x-x-x-x-|

("...tear on you...")

e|-x-x-x-x-x-|
B|-0-0-x-x-x-|
G|-2-0-0-0-0-|
D|-4-4-3-3-3-|
A|-4-4-5-5-5-|
E|-x-x-5-7-3-|

DANIEL'S BRIDGE ("Ah...")

e|-x-0-0-x-x-|
B|-x-0-0-0-0-|
G|-0-1-4-0-0-|
D|-0-2-2-3-3-|
A|-2-2-3-2-2-|
E|-3-0-0-3-5-|

Intro -> Verse -> ("Pressing matters bear...", melody in Em) -> Verse -> 
("Pressing matters bear...") -> ("...tear on you...") x2 -> Verse x2 -> ("Pressing 
matters bear...") -> ("...tear on you...") x2 -> Daniel's Bridge -> Verse
Tap to rate this tab
# A B C D E F G H I J K L M N O P Q R S T U V W X Y Z