Song name
# A B C D E F G H I J K L M N O P Q R S T U V W X Y Z

Grizzly Bear - Yet Again tab

Artist: Grizzly Bear 
Song: Yet Again
Album: Shields
Tuning: E A D G B e

Intro:
e|-------------------0----77--8~--8--8---|
B|-8--7/12-5--------0--3--77--10~-10-10--|
G|-9--7/12-5--554422---4--77--9~--9--9---|
D|-9--7/12-5--554422---4-----------------|
A|-7--5/10-3--332200---2-----------------|
E|---------------------------0-----------|

e|----------------------77--8------------|
B|-8--7/12-5----------3-77--10-10-10-10--|
G|-9--7/12-5--554422--4-77--9--9--9--9---|
D|-9--7/12-5--554422--4------------------|
A|-7--5/10-3--332200--2------------------|
E|---------------------------------------|

Verse:
"Yet again..."            "Lately, it's about..."
e|-3--2-0-0--------------|-3--2-0-0--------8--8--8--|
B|-0--3-0-1--3--1--10----|-0--3-0-1--3--1--10-10-10-|
G|-0--2-0-0--4--2----9---|-0--2-0-0--4--2--9--9--9--|
D|-2--0-0-2--4--2-----9--|-2--0-0-2--4--2-----------|
A|-2--0-2-3--2--0--------|-2--0-2-3--2--0-----------|
E|-0----3----------------|-0----3-------------------|

"Oh oh oh oh oh oh oh oh..."
e|-003030-020-33-00000000000000000000-------00--8---8--8--8---|
B|-000000-333-33-11010011010011010011333333-11--10--10-10-10--|
G|-000000-222-00-00000000000000000000444444-22--9---9--9--9---|
D|-222222-000-00-22222222222222222222444444-22----------------|
A|-222222-000-22-33333333333333333333222222-00----------------|
E|-000000-----33----------------------------------------------|

Verse:
"Shall with..."
e|-------------------0----77--8~--8--8---|
B|-8--7/12-5--------0--3--77--10~-10-10--|
G|-9--7/12-5--554422---4--77--9~--9--9---|
D|-9--7/12-5--554422---4-----------------|
A|-7--5/10-3--332200---2-----------------|
E|---------------------------0-----------|

"Too soon..."
e|---30-0-3-0--000-------0---8--8--8--8--|
B|---00-3-3-1--111-3-33--1---10-10-10-10-|
G|-0-00-2-0-0--000-4-44--2---9--9--9--9--|
D|-2------0-2--222-4-44--2---------------|
A|-2------2-3--333-2-22--0---------------|
E|-0------3------------------------------|

Chorus:
"Take it all..."
e|---7--7--7--7--8--8--8--8--12-12-12-12--7--7--7--7--7--7--7--7--8--8--8--8--12-12-12-12--|
B|--5--5--5--5--5--5--5--5--8--8--8--8---5--5--5--5--5--5--5--5--5--5--5--5--8--8--8--8----|
G|-7--7--7--7--7--7--7--7--9--9--9--9---7--7--7--7--7--7--7--7--7--7--7--7--9--9--9--9-----|
D|-----------------------------------------------------------------------------------------|
A|-----------------------------------------------------------------------------------------|
E|-----------------------------------------------------------------------------------------|

Post-Chorus:
e|------10-7---------10-------10-7---------10-------10-7---------10-------|
B|-7/11------8/7-7/11----7/11------8/7-7/11----7/11------8/7-7/11----13~--|
G|-------------------------------------------------------------------14~--|
D|-------------------------------------------------------------------14~--|
A|-------------------------------------------------------------------12~--|
E|------------------------------------------------------------------------|

Verse:

Rhythm guitar:
e|-003030-020-33-00000000000000000000-------0000000--|
B|-000000-333-33-11010011010011010011333333-1111111--|
G|-000000-222-00-00000000000000000000444444-2222222--|
D|-222222-000-00-22222222222222222222444444-2222222--|
A|-222222-000-22-33333333333333333333222222-0000000--|
E|-000000-----33-------------------------------------|


Lead guitar:
e|-------------------0----77---8--8---|
B|-8--7/12-5--------0--3--77---10-10--|
G|-9--7/12-5--554422---4--77---9--9---|
D|-9--7/12-5--554422---4--------------|
A|-7--5/10-3--332200---2--------------|
E|------------------------------------|

"Keep score..."
e|-003030-020-33-00000000000000000000-------0000000--|
B|-000000-333-33-11010011010011010011333333-1111111--|
G|-000000-222-00-00000000000000000000444444-2222222--|
D|-222222-000-00-22222222222222222222444444-2222222--|
A|-222222-000-22-33333333333333333333222222-0000000--|
E|-000000-----33-------------------------------------|

"If I could..."
e|-003030-020-33-00000000000000000000-------0000000--|
B|-000000-333-33-11010011010011010011333333-1111111--|
G|-000000-222-00-00000000000000000000444444-2222222--|
D|-222222-000-00-22222222222222222222444444-2222222--|
A|-222222-000-22-33333333333333333333222222-0000000--|
E|-000000-----33-------------------------------------|

"Oh oh oh oh..."
e|-003030-020-33-00000000000000000000-------0000000--8--8--8--8---|
B|-000000-333-33-11010011010011010011333333-1111111--10-10-10-10--|
G|-000000-222-00-00000000000000000000444444-2222222--9--9--9--9---|
D|-222222-000-00-22222222222222222222444444-2222222---------------|
A|-222222-000-22-33333333333333333333222222-0000000---------------|
E|-000000-----33--------------------------------------------------|


Chorus:
"Take it all..."
e|---7--7--7--7--8--8--8--8--12-12-12-12--7--7--7--7--7--7--7--7--8--8--8--8|
B|--5--5--5--5--5--5--5--5--8--8--8--8---5--5--5--5--5--5--5--5--5--5--5--5-|
G|-7--7--7--7--7--7--7--7--9--9--9--9---7--7--7--7--7--7--7--7--7--7--7--7--|
D|--------------------------------------------------------------------------|
A|--------------------------------------------------------------------------|
E|--------------------------------------------------------------------------|

--12-12-12-12--7--7--7--7--|
-8--8--8--8---5--5--5--5---|
9--9--9--9---7--7--7--7----|
---------------------------|
---------------------------|
---------------------------|


Repeat 2x

Post-Chorus:
e|------10-7---------10-------10-7---------10-------10-7---------10-------|
B|-7/11------8/7-7/11----7/11------8/7-7/11----7/11------8/7-7/11----13~--|
G|-------------------------------------------------------------------14~--|
D|-------------------------------------------------------------------14~--|
A|-------------------------------------------------------------------12~--|
E|------------------------------------------------------------------------|

End:
Rhythm guitar:
e|-16-15-12-9--8--12-16-15-12-9--8--|
B|-16-15-14-10-10-14-16-15-14-10-10-|
G|-16-16-14-11-10-14-16-16-14-11-10-|
D|-18-17-------------18-17----------| Repeat until the end
A|----------------------------------|
E|----------------------------------|
   V  V  V  V  V  V  V  V  V  V  V

Lead guitar:
e|-7-10/17--7-10/16-12-9--|
B|------------------------|
G|------------------------|
D|------------------------|
A|------------------------|
E|------------------------|

Rhythm guitar end with
e|-16--|
B|-16--|
G|-16--|
D|-18--|
A|-----|
E|-----|

Lead guitar end with:
e|-7~~-|
B|-----|
G|-----|
D|-----|
A|-----|
E|-----|

Please rate and leave a comment. Thank you!
Tap to rate this tab
# A B C D E F G H I J K L M N O P Q R S T U V W X Y Z