Song name
# A B C D E F G H I J K L M N O P Q R S T U V W X Y Z

Grizzly Bear - Shift tab

Help us improve GuitareTab! Take a short survey!
-------------------------------------------------------------------------------
			     SHIFT - Grizzly Bear
-------------------------------------------------------------------------------
Tabbed by: Boudros
Email:

Tuning: E (regular)

This is the basic pattern. It is accurate, though the spaces between notes do not 
exactly. Its pretty hard at first to get it but once you do youll have a lot of fun with it. 
are a couple variations to the riff, but i havent got to them yet. Enjoy !


e|-------5--------------5------------5----------------5-------------------5|
B|------------5---------------5-----------5----------------5--------5------|
G|-------------------------------------------------------------------------|
D|------2---------------------2-----------------2-------------------------2|
A|-0--------------0---------------------------------------------2----------|
E|------------------------------------3------------------------------------|

e|-------5--------------5------------5----------------5-------------------5|
B|------------5---------------5-----------5----------------5--------5------|
G|-------2--------------------2--------------------------------------------|
D|-0-------------0----------------------------2---------------------------2|
A|------------------------------------3------------------------2h3---------|
E|-------------------------------------------------------------------------|
Related for Shift tab