Song name
# A B C D E F G H I J K L M N O P Q R S T U V W X Y Z

Groove Addicts - The Beast At Our Door tab

The Groove Addicts
The Beast At Our Door
Tabbed By ChuckNorris_58
Drop D Tuning (DADGBe)

e|------------------|
B|------------------|
G|------------------|
D|-------3-----3----| x3
A|------------------|
D|----0-----0-------|

e|-----------------------------------|
B|-----------------------------------|
G|-----------------------------------|
D|----3---3---3---3---3---2---1-1-0--| x6or7 - Slowly fades out
A|-----------------------------------|
D|--0---0---0---0---0---0---0--------|

e|------------------|
B|------------------|
G|------------------|
D|-------3-----3----| x2
A|------------------|
D|----0-----0-------|

e|-----------------------------------|
B|-----------------------------------|
G|-----------------------------------|
D|----3---3---3---3---3---2---1-1-0--| x4
A|-----------------------------------|
D|--0---0---0---0---0---0---0--------|

e|------------------------------------------------------| Something like
B|--10--11--13--10--10--11--13--11--13--11--10--11--13--| this, not 100% 
G|------------------------------------------------------| sure, can either
D|------------------------------------------------------| be played normally
A|------------------------------------------------------| or tremolo picked
D|------------------------------------------------------| 

Thats about it
Just listen along to the song 
And youll figure it out

Tap to rate this tab
# A B C D E F G H I J K L M N O P Q R S T U V W X Y Z