Song name
# A B C D E F G H I J K L M N O P Q R S T U V W X Y Z

Groove Armada - Whats Your Version tab

That's the guitar intro for What's Your Version (Reprise) by Groove Armada
Which is the 15th track on the Soundboy Rock album.
I think it's being repeated throughout the entire song.
Pretty easy when you get the hang of it.
Have fun!

E|--------------------|
B|--------------------|
G|-----------2--0-----|
D|--------0--------3--|
A|-----2--------------|
E|--3-----------------|

E|--------------------|
B|--------------------|
G|-----------2--0-----|
D|-----0--3--------3--|
A|--1-----------------|
E|--------------------|

E|------------------------|
B|------------------------|
G|-----------0------------|
D|--------------3--1------|
A|-----0--3---------------|
E|--1---------------------|

E|--------------------|
B|--------------------|
G|-----------0--------|
D|--------1-----3--1--|
A|-----3--------------|
E|--4-----------------|
Tap to rate this tab
# A B C D E F G H I J K L M N O P Q R S T U V W X Y Z