Song name
# A B C D E F G H I J K L M N O P Q R S T U V W X Y Z

Groove Coverage - 21st Century Digital Girl tab

-------------------------------------------------------------------------------
	             21st Century Digital Girl (SOLO) - Groove Coverage
-------------------------------------------------------------------------------
Tabbed by: Jochen H. 2010-03-13 
Email: void_main@freakmail.de

Tuning: EADGBe

e |-------11-11--------11-11--------11-11--------11-11--------11-11--|
B |-10b11--------10b11--------10b11--------10b11--------10b11--------|
G |------------------------------------------------------------------|
D |------------------------------------------------------------------|
A |------------------------------------------------------------------|
E |------------------------------------------------------------------|

e |-11b12---------------------------------------|
B |-------11-9----9-11b12-----------------------|
G |------------11---------11-8---------8-11~-8~-| 
D |----------------------------11-8-11----------|
A |---------------------------------------------|
E |---------------------------------------------|

e |-----------------------------------------------------------------------------|
B |-----------------------------------------------------------------------------|
G |-11-11--11-11---11-11--11-11---11-11--11-11---11--11-11--11--11-11---11--8~--|
D |-11-11--11-11---11-11--11-11---11-11--11-11---11--11-11--11--11-11---11------|
A |-----------------------------------------------------------------------------|
E |-----------------------------------------------------------------------------|
           pm...          pm...          pm...       pm...      pm...

                                    D#
e |------------------------------------------|
B |------------------------------------------|
G |----8~-8~---------------------------------|
D |-11----------8/------------------8~~~-----|
A |----------11---9----------9----9----------|
E |-----------------11-9-11---11-------------|


************************************

| /   slide up
| \   slide down
| h   hammer-on
| p   pull-off
| ~   vibrato
| +   harmonic
| x   Mute note
| b   Bend
| pb  Pre-bend
| br  Bend release
| pbr Pre-bend release
| brb Bend release bend

************************************
Tap to rate this tab
# A B C D E F G H I J K L M N O P Q R S T U V W X Y Z