Song name
# A B C D E F G H I J K L M N O P Q R S T U V W X Y Z

Groovenics - Chopsticks tab

Song: Chopsticks
Artist: Groovenics

------------------------------------------------------------|
------------------------------------------------------------|
------------------------------------------------------------|
--3-3--10-7-7--7-8-7-8-7---3-3--10-7-7--7-8-----------------|
--3-3--10-7-7--7-8-7-8-7---3-3--10-7-7--7-8-----------------|
--1-1--8--5-5--5-6-5-6-5---1-1--8--5-5--5-6-----------------|

OR
------------------------------------------------------------|
------------------------------------------------------------|
-------7-4-4--4-5-4-3-4--------7-4-4--4-5-------------------|
--5-5--7-4-4--4-5-4-3-4---5-5--7-4-4--4-5-------------------|
--5-5--5-2-2--2-3-2-5-2---5-5--5-2-2--2-3-------------------|
--3-3---------------------3-3-------------------------------|

In this song there is a lot of lifting, just listen to the
song and you can tell where to lift.
Tap to rate this tab
 
# A B C D E F G H I J K L M N O P Q R S T U V W X Y Z