Song name
# A B C D E F G H I J K L M N O P Q R S T U V W X Y Z

Groovie Ghoulies - Graceland tab

E-/5-5-5-5-5-5-5-5-5-5-5-5-5-5-5-5-5-5-5-5-5-5-|
B-/5-5-5-5-5-5-5-5-5-5-5-5-5-5-5-5-5-5-5-5-5-5-|
G----------------------------------------------|
D----------------------------------------------|
A----------------------------------------------|
E----------------------------------------------|


fill 2:

E--5-5-5-5-------5--5-5-5-5-------5--5-5-5-5----------5-5-5-5-------5-|
B--5-5-5-5-7-5-7-5--5-5-5-5-7-5-7-5--5-5-5-5-7-5-7----5-5-5-5-7-5-7-5-|
G----------7-5-7------------7-5-7------------7-5-7-6----------7-5-7---|
D--------------------------------------------------7------------------|
A---------------------------------------------------------------------|
E---------------------------------------------------------------------|


A-----------5-5-5-5-5-----------------------------5------------------------|
B-------5-7-5-5-5-5-5-----5-7---------------8-8-5---8-5---11-11-11-11------|
G-------5-7---------------5-7-6-6-6-6-6-------------------11-11-11-11------|
D----/7----------------/7-----7-7-7-7-7-------------------11-11-11-11------|
A----------------------------------------------------------9--9--9--9------|
E--------------------------------------------------------------------------|
well..


a - strum chords until next chord change
E----5---------------------------------------------------------------------|
B----5---------------------------------------------------------------------|
G----6---------------------------------------------------------------------|
D----7---------------------------------------------------------------------|
A----7---------------------------------------------------------------------|
E----5---------------------------------------------------------------------|
							          d
E--------------------------------------------------------------------------|
B--------------------------------------------------7-----------------------|
G--------------------------------------------------7-----------------------|
D--------------------------------------------------7-----------------------|
A--------------------------------------------------5-----------------------|
E--------------------------------------------------------------------------|

				   a
E-------------------------5------------------------------------------------|
B-------------------------5------------------------------------------------|
G-------------------------6------------------------------------------------|
D-------------------------7------------------------------------------------|
A-------------------------7------------------------------------------------|
E-------------------------5------------------------------------------------|

	   e
E--------------------------------------------------------------------------|
B-------9------------------------------------------------------------------|
G-------9------------------------------------------------------------------|
D-------9------------------------------------------------------------------|
A-------7------------------------------------------------------------------|
E--------------------------------------------------------------------------|
      a
E----5---------------------------------------------------------------------|
B----5---------------------------------------------------------------------|
G----6---------------------------------------------------------------------|
D----7---------------------------------------------------------------------|
A----7---------------------------------------------------------------------|
E----5---------------------------------------------------------------------|
Tap to rate this tab
# A B C D E F G H I J K L M N O P Q R S T U V W X Y Z