Song name
# A B C D E F G H I J K L M N O P Q R S T U V W X Y Z

Groovie Ghoulies - Chupacabra tab

-------------------------------------------------------------------------------
			     Chupacabra - Groovie Ghoulies
-------------------------------------------------------------------------------
Tabbed by:morciu
Email:pralea_man58@yahoo.co.uk

Tuning:standard

Verse

e|---------------------------------------------------------------------------|
B|---------------------------------------------------------------------------|
G|---------------------------------------------------------------------------|
D|---------------------------------------------------------------------------|x6
A|---------3---3-5-6-5-3-5-3-------------------------------------------------|
E|---5-5-5---5---------------------------------------------------------------|


Cuidado! Tenga cuidado!

Cuidado! Tenga cuidado!


Chorus

e|---------------------------------------------------------------------------|
B|---------------------------------------------------------------------------|
G|---------------------------------------------------------------------------|x2
D|---------3------------3------------3---3-5-6-5-3-5-3-----------------------|
A|---5-5-5---5-3--5-5-5---5-3--5-5-5---5-------------------------------------|
E|---------------------------------------------------------------------------|

Chupacabra! Chupacabra! Cupacabra! 



Verse

e|---------------------------------------------------------------------------|
B|---------------------------------------------------------------------------|
G|---------------------------------------------------------------------------|
D|---------------------------------------------------------------------------|x6
A|---------3---3-5-6-5-3-5-3-------------------------------------------------|
E|---5-5-5---5---------------------------------------------------------------|


Cuidado! Tenga cuidado!

Cuidado! Tenga cuidado!


Chorus

e|---------------------------------------------------------------------------|
B|---------------------------------------------------------------------------|
G|---------------------------------------------------------------------------|x2
D|---------3------------3------------3---3-5-6-5-3-5-3-----------------------|
A|---5-5-5---5-3--5-5-5---5-3--5-5-5---5-------------------------------------|
E|---------------------------------------------------------------------------|

Chupacabra! Chupacabra! Cupacabra! 


Ending

e|---------------------------------------------------------------------------|
B|---------------------------------------------------------------------------|
G|---------------------------------------------------------------------------|
D|---------------------------------------------------------------------------|
A|---------3---3-5-6-5-3-5-3-------------------------------------------------|
E|---5-5-5---5---------------5-----------------------------------------------|

Cuidado!



| /  slide up
| \  slide down
| h  hammer-on
| p  pull-off
| ~  vibrato
| +  harmonic
| x  Mute note
===============================================================================
Tap to rate this tab
# A B C D E F G H I J K L M N O P Q R S T U V W X Y Z