Song name
# A B C D E F G H I J K L M N O P Q R S T U V W X Y Z

Groovie Ghoulies - Island Of Pogo Pogo tab

The Groovie Ghoulies
"Island of Pogo Pogo"
tabbed by Paul


listen to the song for the rhythm and how many times you play each riff

intro/outro
e|---------------*---------------|
B|---------------*---------------|
G|---------------*------------5--|
D|---------------*--5-5-5-5-3-5--|
A|------------3--*--5-5-5-5-3-3--|
E|--3-3-3-3-1----*--3-3-3-3-1----|

verse               "I'm going....to the.....Island of pogo pogo"  
e|------------------*--------------------------------------------------|
B|------------------*--------------------------------------------------|
G|------------5-----*--------------------------------------------------|
D|--5-5-5-5-3-5-5---*----------5-5-------5-5-------go to intro---------|
A|--5-5-5-5-3-3-5---*----------5-5-------5-5---------------------------|
E|--3-3-3-3-1---3---*----------3-3-------3-3---------------------------|

Bridge
e|---------------------------------------|
B|---------------------------------------|
G|---7-7-----------------5-----------5---|
D|---7-7--7-7--5-5-5-5-3-5-5-5-5-5-3-5---|
A|---5-5--7-7--5-5-5-5-3-3-5-5-5-5-3-3---|
E|--------5-5--3-3-3-3-1---3-3-3-3-1-----|
Tap to rate this tab
 
# A B C D E F G H I J K L M N O P Q R S T U V W X Y Z