Song name
# A B C D E F G H I J K L M N O P Q R S T U V W X Y Z

Grossstadtgefluster - Ich Muss Gar Nix tab

Großstadtgeflüster – Ich Muss Gar Nix

E------------------|
H-----5------------|
G--------4---4-----|
D-2252-25-225-22---|
A---------------52-|
E------------------|

E------------------|
H------------------|
G-----5------------|
D--------5---5-----|
A-3363-36-336-33---|
E---------------63-|

die beiden riffs wechseln sich eigentlich die ganze zeit ab guckt selbst wieoft was 
gespielt werden muss ;)
Tap to rate this tab
# A B C D E F G H I J K L M N O P Q R S T U V W X Y Z