Song name
# A B C D E F G H I J K L M N O P Q R S T U V W X Y Z

Ground Zero - Black Lights tab

Intro
----------------------------------------------------|
----------------------------------------------------|
----------------------------------------------------|
----------------------------------------------------|
-----5h7------3h5-----5m7------1h3------------------|
-0-0-----0-00-----0-0-----0-00----------------------|PM

verse 1 X4
----------------------------------------------------|
----------------------------------------------------|
----------------------------------------------------|
----------------------------------------------------|
----------3202----------5323------------------------|
-00000000-3202-00000000-5323------------------------|PM (all)


Bridge 1 X3
----------------------------------------------------|
----------------------------------------------------|
----------------------------------------------------|
----9S11----7S9----9S11----5S7----------------------|
----7S9-----5S7----7S9-----3S5----------------------|
-00------00-----00------00--------------------------|

verse 2 X4
----------------------------------------------------|
----------------------------------------------------|
----------------------------------------------------|
----------------------------------------------------|
----------3202----------5323------------------------|
-00000000-3202-00000000-5323------------------------|PM (all)


Chorus X5
----------------------------------------------------|
----------------------------------------------------|
----------------------------------------------------|
----------7----------5----------3----------5--------|
----------7----------5----------3----------5--------|
-00000000-7-00000000-5-00000000-3-00000000-5--------|PM 0'S

verse 3 X4
----------------------------------------------------|
----------------------------------------------------|
----------------------------------------------------|
----------------------------------------------------|
----------3202----------5323------------------------|
-00000000-3202-00000000-5323------------------------|PM (all)

Bridge 2

----------------------------------------------------|
----------------------------------------------------|
----------------------------------------------------|
----9S11----7S9----9S11----5S7----------------------|
----7S9-----5S7----7S9-----3S5----------------------|
-00------00-----00------00--------------------------|


----------------------------------------------------|
----------------------------------------------------|
----------------------------------------------------|
----------------------------------------------------|
-5323-3202-5323-3202-5323-3202----------------------|
-5323-3202-5323-3202-5323-3202----------------------|


----------------------------------------------------|
----------------------------------------------------|
----------------------------------------------------|
----9S11----7S9----9S11----5S7----------------------|
----7S9-----5S7----7S9-----3S5----------------------|
-00------00-----00------00--------------------------|

Solo:

RHYTHM: just repeat till solos done
----------------------------------------------------|
----------------------------------------------------|
----------------------------------------------------|
----------------------------------------------------|
-----5h7------3h5-----5m7------1h3------------------|
-0-0-----0-00-----0-0-----0-00----------------------|PM


Lead:

----------------------------------------------------------|
---8-10----7-9----8-10-------------9-11----9-11----9-11-8-|
-7------77-----77------77-9-11--77------77------77--------|
----------------------------------------------------------|
----------------------------------------------------------|
----------------------------------------------------------|


--------------------------------------------------------------|
-------18-------18------18-------20202020--------12-------14--|
--1616-18--1616-18-1616-18--1616-20202020--12-14----12-14-----|
--------------------------------------------------------------|
--------------------------------------------------------------|
--------------------------------------------------------------|

then after solo just rhythm:
X3 ring on last note final time then fade
----------------------------------------------------|
----------------------------------------------------|
----------------------------------------------------|
----9S11----7S9----9S11----5S7----------------------|
----7S9-----5S7----7S9-----3S5----------------------|
-00------00-----00------00--------------------------|
Tap to rate this tab
 
# A B C D E F G H I J K L M N O P Q R S T U V W X Y Z