Song name
# A B C D E F G H I J K L M N O P Q R S T U V W X Y Z

Ground Zero - Bullet To The Head tab

both are easy to figure out
verse
---------------------------------------------
---------------------------------------------
---------------------------------------------
---7-5---------------------------------------
-5-----8-5-7-3-5-----------------------------
---------------------------------------------

solo

-----------------------------------------------------
-----------------------------------------------------
--------7-----------5-----------3--------------------
-----9-----9-----7-----7-----5-----5-----4--2--------
--7-----------5-----------3-----------2--------4-----
-----------------------------------------------------
Tap to rate this tab
# A B C D E F G H I J K L M N O P Q R S T U V W X Y Z