Song name
# A B C D E F G H I J K L M N O P Q R S T U V W X Y Z

Groundation - We Na Forget Rome tab

-----------------------------------------------------------------------------
                     Groundation - We Na Forget (Rome)                     
-----------------------------------------------------------------------------

username: gotta have kaya

These are the only chords in the entire song.

 Bm  F#m   E 
|-7-|-9--|-7-|
|-7-|-10-|-9-|
|-7-|-11-|-9-|
|-9-|-11-|-9-|
|-9-|-9--|-7-|
|-7-|----|---|

verse:
Bm            F#m              E         Bm          F#m           E
You can see them in the streets everyday, talking to everyone that them meet
...

chorus:
Bm            F#m              E
Rome you want forgiveness, and we na forget you yet...

And the rest of the song goes along with that. Hope you enjoy.
One Love
Tap to rate this tab
 
# A B C D E F G H I J K L M N O P Q R S T U V W X Y Z