Song name
# A B C D E F G H I J K L M N O P Q R S T U V W X Y Z

Groundhogs - Cherry Red tab

Help us improve GuitareTab! Take a short survey!
e|----------|
B|----------|
G|------7~--|     This is the main riff.
B|------8~--|
A|----------|
E|-3-33-----|


e|-6--1--3---|
B|-6--1--3---|
G|-7--2--4---|     This is the other riff.
B|-8--3--5---|
A|-8--3--5---|
E|-6--1--3---|


The rest is solos, be a man and figure it out yourself. :D
Related for Cherry Red tab