Song name
# A B C D E F G H I J K L M N O P Q R S T U V W X Y Z

Group X - Rollerskate Date tab

Group X - Rollerskate Date


- -----------------------------------------------------------------|
- -----------------------------------------------------------------|
- ---7------9-----------5-----7----12---2/3/0---5/7----------------|
- ---7------9-----7----5-----7----12-----------7-------------------|
- ---5------7-----7----3-----5----10-------------------------------|
- -----------------5-----------------------------------------------|


- -------------------------------------------------------------------------|
- ---------------------------------------------5----5-------5---5----------|
- ------------5/4-----5------5---/7'---------7----5------7----5------------|
- -5---5/7-----5/7-----7----------------------------7------------7/5-------|
- -------------------------------------------------------------------------|
- -------------------------------------------------------------------------|


- --------------------------------------------------------------------------|
- --------------------------------------------------------------------6-5---|
- --------------------------5---------------------------4-5--7/5/7----------|
- -----------------3/5-------7----5/3-------5-6--7--------------------------|
- ---7---5----3/5----------------------5--7---------------------------------|
- --------------------------------------------------------------------------|


- --------------------------8-5-----------------------------------------|
- ------------------------------8-5-----5-------------------------------|
- ------------------------5-----------7'----7--5---5--------------------|
- -------------------5/7--------------------------7---7-5---------------|
- ----5-5-5----5/7-----------------------------------------7-5----------|
-5/8-----5/8------------------------------------------------------------|


- ------------------------------------------------------------------------|
- ------------------------------------------------------------------------|
- ----------------5/7--5--4-----------------------------------------------|
- ------------5/7-------------5-7-7-7-------------------------------------|
- --------5/7---------------------------7-5-5---5-5-5---------------------|
- ---5/8--------------------------------------8----------8----------------|


- -15--12----------------------------------------------------------------------------|
- ---------15---10---8--8/10/8--------------------6----6/8-10""---8------------8-----|
- --------------------------------------7------4-5--5/7---7------------------10--9"--|
- -----------------------------------------------------------------------------------|
- -----------------------------------------------------------------------------------|
- -----------------------------------------------------------------------------------|


- -------------------------------------------------------------------|
- -------------------------------------------------------------------|
- ------------------------5--7-7'---5--------------------------------|
- --------------5--5-7--------------7--5-----------------------------|
- ---------5-7--7-------------------------7'--5----5--7'---5---------|
- 5-5-5/8---------------------------------------8-------------8------|

- -----------------------------------------------------------------------|
- -----------------------------------------------------------------------|
- -------------------------5---5/7-7"--7-5-------------------------------|
- ----------------5--5/7--7---------------7-5--3/5/3--2-2/3/2/0----------|
- -5---5"---5/7--7-------------------------------------------------------|
- -----------------------------------------------------------------------|

- --------------------------------|
- --------------------------------|
- --------------------------------|
- --------5-7-8-7-7/8--5----------|
- ---5/7--------------------------|
- --------------------------------|

" - Pick alot
' - Bend alot
/ - Hammer on



Sorry about the sketchy tab. This is one of my first ones i've made.
It's somewhere around the area that's tabbed. Once you hear it the blues scale should kick in.
Tap to rate this tab
 
# A B C D E F G H I J K L M N O P Q R S T U V W X Y Z