Song name
# A B C D E F G H I J K L M N O P Q R S T U V W X Y Z

Grouper - Weve All Gone To Sleep tab

Artist: Grouper https://myspace.com/grouperrepuorg
Album: Dragging a Dead Deer Up A Hill
Song: We've All Gone to Sleep

Tuning: Open D


d|------------------------------------------------------------------|
A|--------0--------------------------0------------------------------|
F#|-------0--------------------------0------------------------------|
D|--------0----x3--------------------0----x3------------------------| (x2)
A|--------5--------------------------7------------------------------|
D|--------5--------------------------7------------------------------|

d|------------------------------------------------------------------|
A|-------0------------0-------------0-------------------------------|
F#|------0------------0-------------0-------------------------------|
D|-------0---x3-------0---x3--------0---x6--------------------------|
A|-------5------------4-------------2-------------------------------|
D|-------5------------4-------------2-------------------------------|


And repeat.. Be sure to alternate between strumming just the 5th & 6th strings and all 
five like Grouper does.
Tap to rate this tab
# A B C D E F G H I J K L M N O P Q R S T U V W X Y Z