Song name
# A B C D E F G H I J K L M N O P Q R S T U V W X Y Z

Grouplove - Gold Coast tab

**TIMING IS NOT APPROXIMATE**

Main Riff:

E|--------------------------------------------------------------------|
B|--------------------------------------------------------------------|
G|--------------------------------1--------------------------------1--|
D|-----1-----------------2-----2--------1-----------------2-----2-----|
A|--2-----2--0--4--0--4-----4--------2-----2--0--4--0--4-----4--------|
E|--------------------------------------------------------------------|

Chorus Riff:

E|-------------------------------------------------------|
B|----------12------------12--------------------------9--|
G|--11h13------13--11h13------13--11p9--11p9----------9--|
D|-----------------------------------------------11---9--|
A|-------------------------------------------------------|
E|-------------------------------------------------------|
Tap to rate this tab
# A B C D E F G H I J K L M N O P Q R S T U V W X Y Z