Song name
# A B C D E F G H I J K L M N O P Q R S T U V W X Y Z

Grouplove - Ways To Go tab

-------------------------------------------------------------------------------
                                                          WAYS TO GO - Grouplove
-------------------------------------------------------------------------------
Tabbed by: Patrick Bozek
E-mail: patrick_bozek@hotmail.com

So I felt like I should write this tab out because the other tabs aren't quiet
accurate, this is almost exactly what is played by Andrew Wessen. christian 
Zucconi plays his chords with a capo on the first fret. Some good live versions
are their Bing Lounge set or their performance on Jimmy Kimmel Live.

Tuning: EbAbDbGbBbeb (Half Step Down)

Intro/Verse:
eb|-----------------------------------------------------| (x2)
Bb|-----------------------------------------------------|
Gb|--10---8------10---8---------------------------------|
Db|--11--10--10--11--10--10-10-10-10-10-10-10-10-10-10--|
Ab|----------11----------11-11-11-11-11-11-11-11-11-11--|
Eb|-----------------------------------------------------|

eb|-------------------------------------------|
Bb|-------------------------------------------|
Gb|--10---8------10---8-----------------------|
Db|--11--10--10--11--10--6-6-6-6-6-6-6-6-6-6--|
Ab|----------11----------8-8-8-8-8-8-8-8-8-8--|
Eb|-------------------------------------------|

eb|-----------------------------------------------------|
Bb|-----------------------------------------------------|
Gb|--10---8------10---8---------------------------------|
Db|--11--10--10--11--10--10-10-10-10-10-10-10-10-10-10--|
Ab|----------11----------11-11-11-11-11-11-11-11-11-11--|
Eb|-----------------------------------------------------|
                              (Played after first chorus)
eb|--------------------------|--------------------------|
Bb|--------------------------|--------------------------|
Gb|--10---8------10---8------|--------------------------|
Db|--11--10--10--11--10--10--|-8-8-8-8-8-8-8-8-8-8-8----|
Ab|----------11----------11--|-6-6-6-6-6-6-6-6-6-6-6----|
Eb|--------------------------|--------------------------|

Chorus:
     d  d  d u  u d u d u d u d u d u d u d u d u
eb|-----------------------------------------------| (x2)
Bb|-----------------------------------------------|
Gb|--6--6--6-6--6-6-6-6-6-------------------------|
Db|--6--6--6-6--6-6-6-6-6-6-6-6-6-6-6-3-3-3-3-3-3-|
Ab|--4--4--4-4--4-4-4-4-4-6-6-6-6-6-6-3-3-3-3-3-3-|
Eb|-----------------------4-4-4-4-4-4-1-1-1-1-1-1-|

     d  d  d u  u d u d u d u d u d u d u d u d u
eb|-----------------------------------------------|
Bb|-----------------------------------------------|
Gb|--6--6--6-6--6-6-6-6-6-------------------------|
Db|--6--6--6-6--6-6-6-6-6-6-6-6-6-6-6-8-8-8-8-8-8-|
Ab|--4--4--4-4--4-4-4-4-4-6-6-6-6-6-6-8-8-8-8-8-8-|
Eb|-----------------------4-4-4-4-4-4-6-6-6-6-6-6-|

     d  d  d u  u d u d u d u d u d u d u d u d u
eb|-----------------------------------------------|
Bb|-----------------------------------------------|
Gb|--6--6--6-6--6-6-6-6-6-------------------------|
Db|--6--6--6-6--6-6-6-6-6-6-6-6-6-6-6-3-3-3-3-3-3-|
Ab|--4--4--4-4--4-4-4-4-4-6-6-6-6-6-6-3-3-3-3-3-3-|
Eb|-----------------------4-4-4-4-4-4-1-1-1-1-1-1-|

Chorus Fill: Happens after the second time playing the chorus and the repeat of
the first line (also the strumming rhythm slightly changes).
eb|-----------------|
Bb|-----------------|
Gb|--------1--------|
Db|--3p1h3---3p1h3--|
Ab|-----------------|
Eb|-----------------|

Interlude: Palm mute throughout
eb|-----------------------------------------------| (x2)
Bb|-----------------------------------------------|
Gb|-----------------------------------------------|
Db|-----------------------------------------------|
Ab|--4--4--4-4--4-4-4-4-4-------------------------|
Eb|-----------------------4-4-4-4-4-4-1-1-1-1-1-1-|

eb|-----------------------------------------------|
Bb|-----------------------------------------------|
Gb|-----------------------------------------------|
Db|-----------------------------------------------|
Ab|--4--4--4-4--4-4-4-4-4-------------------------|
Eb|-----------------------4-4-4-4-4-4-6-6-6-6-6-6-|

eb|-----------------------------------------------|
Bb|-----------------------------------------------|
Gb|-----------------------------------------------|
Db|-----------------------------------------------|
Ab|--4--4--4-4--4-4-4-4-4-------------------------|
Eb|-----------------------4-4-4-4-4-4-1-1-1-1-1-1-|

Outro:
eb|---------------------------------------------------------------| (x2)
Bb|---------------------------------------------------------------|
Gb|--18-18-18-18-18-18-18-18--------------------------------------|
Db|---x--x--x--x--x--x--x--x-18-18-18-18-18-18-15-15-15-15-15-15--|
Ab|--16-16-16-16-16-16-16-16--x--x--x--x--x--x--x--x--x--x--x--x--|
Eb|--------------------------16-16-16-16-16-16-13-13-13-13-13-13--|

eb|---------------------------------------------------------------|
Bb|---------------------------------------------------------------|
Gb|--18-18-18-18-18-18-18-18--------------------------------------|
Db|---x--x--x--x--x--x--x--x-18-18-18-18-18-18-20-20-20-20-20-20--|
Ab|--16-16-16-16-16-16-16-16--x--x--x--x--x--x--x--x--x--x--x--x--|
Eb|--------------------------16-16-16-16-16-16-18-18-18-18-18-18--|

eb|---------------------------------------------------------------|
Bb|---------------------------------------------------------------|
Gb|--18-18-18-18-18-18-18-18--------------------------------------|
Db|---x--x--x--x--x--x--x--x-18-18-18-18-18-18-15-15-15-15-15-15--|
Ab|--16-16-16-16-16-16-16-16--x--x--x--x--x--x--x--x--x--x--x--x--|
Eb|--------------------------16-16-16-16-16-16-13-13-13-13-13-13--|




Those are all the sections. Have fun.
Tap to rate this tab
# A B C D E F G H I J K L M N O P Q R S T U V W X Y Z